Guitar Tabs
song title    band name

Join Us Today!

Don't strum alone...
be a part of the largest online Christian music community. Browse thousands of guitar tabs and chat w/ musicians like yourself.


It's Free!

This tab has been rated a 1.67 out of 5 for accuracy. (3 votes)Sorry, but you must be logged in to rate this tab.
Click here to log-in, or you can click here to register.
(Registration is free)

All songs owned by corresponding publishing company. If you make copies of any song on this website, be sure to report your usage to CCLI.
Submitted by: leng_teng

Title: Better Than Life
Artist: United Live
Tabbed By: Anderson Luy (leng_teng@yahoo.com)

Here's a clearer version of the song.
For electric guitars. If acoustic, stick to the chords. ;)

Intro
Verse
Refrain
Pre-chorus
Chorus
Interlude
Verse
Refrain
Refrain
Pre-chorus
Chorus
Chorus
Refrain
Refrain
Pre-chorus
Chorus
Chorus


Intro:(2 counts each)

    G#    D#    E#m   C#
e|--xx----xx----xx----xx--|
B|--xx----xx----xx----xx--|
G|--13----xx----xx----xx--| 2x
D|--13----13----15----11--|
A|--11----13----15----11--|
E|--11----11----13----9---|

Verse:(2 counts each)

    G#    D#    E#m   C#
e|--xx----xx----xx----xx--|
B|--xx----xx----xx----xx--|
G|--13----xx----xx----xx--| 4x
D|--13----13----15----11--|
A|--11----13----15----11--|
E|--11----11----13----9---|

Refrain:(2 counts each)
    G#   A#m  Cm   C#   D#   D#   E#m  C#
e|-----------------------------------------|
B|-----------------------------------------|
G|-----------------------------------------|
D|--6----8----10---11---13---13---15---11--|
A|--6----8----10---11---13---13---15---11--|
E|--4----6----8----9----11---11---13---9---|

Pre-chorus:(2 counts each)

    G#    D#    E#m   C#
e|--xx----xx----xx----xx--|
B|--xx----xx----xx----xx--|
G|--13----xx----xx----xx--| 2x
D|--13----13----15----11--|
A|--11----13----15----11--|
E|--11----11----13----9---|

Chorus:(4 counts each)

    G#    D#    E#m   C#
e|--xx----xx----xx----xx--|
B|--xx----xx----xx----xx--|
G|--13----xx----xx----xx--| 2x
D|--13----13----15----11--|
A|--11----13----15----11--|
E|--11----11----13----9---|

Interlude:(2 counts each)

    E#m  C#   D#   D#
e|--xx---xx---xx---xx--|
B|--xx---xx---xx---xx--|
G|--xx---xx---xx---xx--| 2x
D|--15---11---13---13--|
A|--15---11---13---13--|
E|--13---9----11---11--|


Comments about this tab

darkhero - 2006-11-16

for my unexpirenced guitar skills what is D# tabed ( the normal cord) cause it is not on my chart.. or in my books :(


rockstar4christ - 2007-05-09

d# us the same as E flat


Add a comment/correction

Complimentary Christian Ringtones
Dadamobile and CGR have teamed up to bring your favorite Christian artists right to your phone. Sign up today and get 10 complementary ringtones!
Tab Country
Did you know CGR has a sister site w/ country guitar tabs? Well we do! Its called Tab Country. It has a great archive with a lot of country tabs.
Rockin Tabs
Are you looking for a site that has rock guitar tabs? Then Rockintabs.com is the place for you. It is a budding site with many rock guitar tabs. Submit your tab today.
Tab Gallery
Tab Gallery has a compilation of christian, rock, and country tabs all in one place. Come visit us.