Guitar Tabs
song title    band name

Join Us Today!

Don't strum alone...
be a part of the largest online Christian music community. Browse thousands of guitar tabs and chat w/ musicians like yourself.


It's Free!

This tab has been rated a 4.33 out of 5 for accuracy. (6 votes)Sorry, but you must be logged in to rate this tab.
Click here to log-in, or you can click here to register.
(Registration is free)

All songs owned by corresponding publishing company. If you make copies of any song on this website, be sure to report your usage to CCLI.
Submitted by: B-rad

Song: Broken Heart
Artist: Falling Up
Words and Music by: Falling Up

Ok, now the other tab was almost correct but the intro and verse were wrong. 
Iíve seen Falling Up in concert twice and I hung out with Jeremy and Joe and 
the hooked me up on the exact version. SO THIS IS 103% PERCENT CORRECT!


Intro: x4
D--0-4-6-9-8/2/6-9-8
A--0-4-6-6-6/2/6-6-6 
D--0-4-6-6-6/2/6-6-6
P.M...................

Verse: x7
D--0-4-6-9-8/2/6-9-8
A--0-4-6-6-6/2/6-6-6 
D--0-4-6-6-6/2/6-6-6
and
D[-4--]				                                      D-x-x-x-x
A[-4--]				                                      A-x-x-x-x
D[-4--] just add this for flavor>D-x-x-x-x

Chorus
D[-2-2-2-2-2-2-2-2-4-4-4-4-4-4-4-4-6-6-6-6-6-6-6-6-4-4-4-4-4-4-4-4-]
A[-2-2-2-2-2-2-2-2-4-4-4-4-4-4-4-4-6-6-6-6-6-6-6-6-4-4-4-4-4-4-4-4-]x2
D[-2-2-2-2-2-2-2-2-4-4-4-4-4-4-4-4-6-6-6-6-6-6-6-6-4-4-4-4-4-4-4-4-]

Post-Chorus: twice
D--0-4-6-9-8/2/6-9-8
A--0-4-6-6-6/2/6-6-6 
D--0-4-6-6-6/2/6-6-6
P.M...................

Verse 2: x7
D--0-4-6-9-8/2/6-9-8
A--0-4-6-6-6/2/6-6-6 
D--0-4-6-6-6/2/6-6-6
and 
D[-4--]				   
A[-4--]-silence this time, then come in loud			   
D[-4--] 

Chorus

Solo
G[------11-11-------11-11----------8-----------8-]
D[-2-2---x--x--4-4---x--x--9-8-0--x--9-8-0--x-]
A[-2-2---9--9--4-4--9--9--6-6-0--6--6-6-0--6-]x2
D[-2-2----------4-4----------6-6-0-----6-6-0-----]
Then
D[-2-2-2-2-2-2-2-2-6-6-6-6-6-6-6-6-]
A[-2-2-2-2-2-2-2-2-6-6-6-6-6-6-6-6-]x3
D[-2-2-2-2-2-2-2-2-6-6-6-6-6-6-6-6-]
Then
D[-2-2-2-2-2-2-2-2-6-6-6-6-6-6-6-6-6-6-]
A[-2-2-2-2-2-2-2-2-6-6-6-6-6-6-6-6-6-6-]
D[-2-2-2-2-2-2-2-2-6-6-6-6-6-6-6-6-6-6-]
P.M.                   ...     ...

Chorus 2
D[-2-2-2-2-2-2-2-2-4-4-4-4-4-4-4-4-6-6-6-6-6-6-6-6-4-4-4-4-4-4-4-4-]
A[-2-2-2-2-2-2-2-2-4-4-4-4-4-4-4-4-6-6-6-6-6-6-6-6-4-4-4-4-4-4-4-4-]x3
D[-2-2-2-2-2-2-2-2-4-4-4-4-4-4-4-4-6-6-6-6-6-6-6-6-4-4-4-4-4-4-4-4-]
Then it goes
D[-2-2-2-2-2-2-2-2-4-4-4-4-4-4-4-4-6-6-6-6-6-6-6-6-4-4-4-4-4-4-4-4-]
A[-2-2-2-2-2-2-2-2-4-4-4-4-4-4-4-4-6-6-6-6-6-6-6-6-4-4-4-4-4-4-4-4-]
D[-2-2-2-2-2-2-2-2-4-4-4-4-4-4-4-4-6-6-6-6-6-6-6-6-4-4-4-4-4-4-4-4-]
P.M................................................................

and the song ends exactly like this
D--0-4-6-9-8/2/6-9-8
A--0-4-6-6-6/2/6-6-6 
D--0-4-6-6-6/2/6-6-6
P.M...        ...
Then
G[------11-11-------11-11-----------8-----]
D[-2-2---x--x--4-4---x--x---9-8-0--x--2-]
A[-2-2---9--9--4-4---9--9--6-6-0--6--2-]
D[-2-2----------4-4-----------6-6-0-----2-]

Comments about this tab

B-rad - 2005-02-14

Ok the ending got a lil messed up but you can still read it if you know what your doing. Trust me this is 100% correct!


B-rad - 2005-04-05

Yea dudes Jeremy and Joe told me this way.


sk8r7 - 2005-06-19

ok dude yeah i just went to a concert and if you look at my tab, i had my guitar with me and that's not what they showed me! you have way to many notes in that intro. either your fingers or your ears are really strange but ok! what they showed me is
d|--4h66-6h8/2h66
a|--4h66-6h8/2h66
d|--4h66-6h8/2h66
and if you don't believe i was there w/my guitar, give me your e-mail and i'll send you a pic of it, it's autographed by all the guys from Falling Up and Kj-52. they showed me how to play it after i helped them load the trailer!!! l8r


musicislife0612 - 2005-07-02

The intro to me sounds more like:

Intro: x4
D--0-4-6-6-6/2/6-6
A--0-4-6-6-6/2/6-6
D--0-4-6-6-6/2/6-6
P.M...............


B-rad - 2005-10-12

nAW DUDE


darkturd - 2006-08-25

what about palm muting and power chourding this>> D:1/66/2/6-66 (drop d)


Add a comment/correction

Complimentary Christian Ringtones
Dadamobile and CGR have teamed up to bring your favorite Christian artists right to your phone. Sign up today and get 10 complementary ringtones!
Tab Country
Did you know CGR has a sister site w/ country guitar tabs? Well we do! Its called Tab Country. It has a great archive with a lot of country tabs.
Rockin Tabs
Are you looking for a site that has rock guitar tabs? Then Rockintabs.com is the place for you. It is a budding site with many rock guitar tabs. Submit your tab today.
Tab Gallery
Tab Gallery has a compilation of christian, rock, and country tabs all in one place. Come visit us.