Guitar Tabs
song title    band name

Join Us Today!

Don't strum alone...
be a part of the largest online Christian music community. Browse thousands of guitar tabs and chat w/ musicians like yourself.


It's Free!

This tab has been rated a 3.80 out of 5 for accuracy. (5 votes)Sorry, but you must be logged in to rate this tab.
Click here to log-in, or you can click here to register.
(Registration is free)

All songs owned by corresponding publishing company. If you make copies of any song on this website, be sure to report your usage to CCLI.
Submitted by: bryantheroxstar

Relient K- When I Go Down
Album- Mmhmm
*2nd Bridge-Acoustic Part*

Thought I would pitch in on the 2nd Bridge acoustic part, which seems to be
evading many of the tabbers.  For those who don't know, the 2nd Bridge begins 
at 3:22 and ends around 5:44.

Chord names:
--Em7--G---D---A---G---D---A-Asus4-A

e|-0---3---2---0---3---2---0---0---0
b|-3---3---3---2---3---3---2---3---2
g|-0---0---2---2---0---2---2---2---2
d|-2---0---0---2---0---0---2---2---2
a|-2---2---x---0---2---x---0---0---0
e|-x---3---x---x---3---x---x---x---x

Then it changes to:

---D---G- 

e|-2---3-
b|-3---3-
g|-2---0-   x4
d|-0---0-
a|-x---2-
e|-x---3-

When the christmasy-sounding shakers come in right after the 4th time of the
section above play:

--Em7--D---G---D-

e|-0---2---3---2-
b|-3---3---3---3-
g|-0---2---0---2-  x14 (including the section where each chord is strummed once)
d|-2---0---0---0-
a|-2---x---2---x-
e|-x---x---3---x-

You may also want to try a simpler Em instead of the Em7, whichever tickles 
your fancy better.

--Em-

e|-0-
b|-0-
g|-0-
d|-2-
a|-2-
e|-0-

After this it breaks down into the distorted power chords, which are correct in
other tabs on here.  ENJOY!

~Bryan The Rockstar

Comments about this tab

Void_zero - 2004-12-28

Hey!
This song is awsome. I've figured out the harmonic part to play:

*Harmonics
E----------------------------------
B------*7-------------*7-----------
G--*5-----*7-------*5-----*7-------
D-----------*7------------*12------
A----------------------------------
E----------------------------------


gregorykicks - 2005-02-16

Here's the harmonic part. You had it right
Except that it doesn't hit the d12 on every
other time.

B---7-----------7-----------7----------7--
G-5---7------5----7------5---7------5---7-
D-------7-----------12--------7-----------

Greg


jamforchrist123 - 2005-04-19

Dude, That Harmonic Part Rocks!


boredman555 - 2005-06-21

I found the tab in the bridge where it starts "And the control I thought I had..." to go like this:

The bass string of each note is stricken 1 beat before the rest of the strings are played.

e: -0--0--3--3-3-0---3--3-3-3--0-0
B: -3--3--3--3-3-3---3--3-3-3--3-2
G: -0--2--0--0-0-2---0--0-0-0--2-2
D: -2--2--0--0-0-2---0--0-0-2--2-2
A: -2--0--2--2-x-0---2--2-x-2--0-0
E: -x--x--3--3-2-x---3--3-2-0--x-x

This is just my interpretation of it, you can accept it or deny it, but I would definitely put it into consideration.


boredman555 - 2005-06-22

Also, after it does the D G four times, and then starts the Christmasy bells, You have it as Em7-D-G2-D, but to me it sounds like it is a Bm-D-G2-D
---Bm---D--G2---D-
e: -2---2---3---2-
B: -3---3---3---3-
G: -4---2---0---2-
D: -4---0---0---0-
A: -2---x---2---x-
E: -2---x---3---x-

Not much of a difference, but it is a difference, and it is hard to tell with the singing going on what that first note is.


YESILOVEMYJESUS - 2005-07-09

i agree with boredman, but i'd play the chords differently

during the christmas jingly part play Bm D G D but like this
Slide G up to D

---Bm---D--G2/D-
e: -2---x---x-x-
B: -3---x---x-x-
G: -4---7---4/11-
D: -4---7---5/12-
A: -2---5---5/12-
E: -x---x---3/10-
Cause I love you..
Oh God, I love you..


godz_gal - 2005-10-08

what are power chords?


godz_gal - 2005-10-08

what are power chords?


Add a comment/correction

Complimentary Christian Ringtones
Dadamobile and CGR have teamed up to bring your favorite Christian artists right to your phone. Sign up today and get 10 complementary ringtones!
Tab Country
Did you know CGR has a sister site w/ country guitar tabs? Well we do! Its called Tab Country. It has a great archive with a lot of country tabs.
Rockin Tabs
Are you looking for a site that has rock guitar tabs? Then Rockintabs.com is the place for you. It is a budding site with many rock guitar tabs. Submit your tab today.
Tab Gallery
Tab Gallery has a compilation of christian, rock, and country tabs all in one place. Come visit us.