Guitar Tabs
song title    band name

Join Us Today!

Don't strum alone...
be a part of the largest online Christian music community. Browse thousands of guitar tabs and chat w/ musicians like yourself.


It's Free!

This tab has been rated a 4.67 out of 5 for accuracy. (6 votes)Sorry, but you must be logged in to rate this tab.
Click here to log-in, or you can click here to register.
(Registration is free)

All songs owned by corresponding publishing company. If you make copies of any song on this website, be sure to report your usage to CCLI.
Submitted by: FreedomPing

Copyright 1998 Integrity's Hosanna! Music

Moderately Slow

Intro 

E/G#  Asus2 C#m7 B

Verse 

E/G#  Asus2 C#m7 B (sometimes B is a B7) use your judgement

Chorus 

B(add4) F#m9 E/G# E/A B

Outro 

E/G#  Asus2 C#m7 B

Best I can do on this one
Enjoy and God Bless

Comments about this tab

ChapmanGuitars - 2005-06-09

Sounds Good!


guitarplayr4jc - 2005-08-27

i think we play it (our church band) D G Bm A <---------- intro thats what we play but the chorus is diff.


jesusfreak936 - 2005-11-05

it sounds good if you play a Bsus instead of a B too.


monz8328 - 2006-03-02

the intro riff is played on a mandolin but this is how i play it on guitar
-9---11---12---11---9------------------------------
------------------------12---10---9---9---10-------
-----------------------------------------------11--
---------------------------------------------------
---------------------------------------------------
---------------------------------------------------

-9--11--12--11--9-------------------------------------------
-------------------12--10--9--9--10-------------9-----------
-------------------------------------11--9--11-----11--9----
------------------------------------------------------------
------------------------------------------------------------
------------------------------------------------------------

the rest of the tab rocked good job dude keep doin your thing


ChrstianMuzicn7 - 2006-06-19

This is how I play the intro:

-9--11--12--11--9--7--5--4--5--4--2--
-------------------------------------
-------------------------------------
-------------------------------------
-------------------------------------
-------------------------------------

It just seems a little easier to me

God bless


CWRenaudin - 2006-08-06

hey whats e/a and f#m7. could you tab those two chords for me please?


Add a comment/correction

Complimentary Christian Ringtones
Dadamobile and CGR have teamed up to bring your favorite Christian artists right to your phone. Sign up today and get 10 complementary ringtones!
Tab Country
Did you know CGR has a sister site w/ country guitar tabs? Well we do! Its called Tab Country. It has a great archive with a lot of country tabs.
Rockin Tabs
Are you looking for a site that has rock guitar tabs? Then Rockintabs.com is the place for you. It is a budding site with many rock guitar tabs. Submit your tab today.
Tab Gallery
Tab Gallery has a compilation of christian, rock, and country tabs all in one place. Come visit us.