Guitar Tabs
song title    band name

Join Us Today!

Don't strum alone...
be a part of the largest online Christian music community. Browse thousands of guitar tabs and chat w/ musicians like yourself.


It's Free!

This tab has been rated a 3.33 out of 5 for accuracy. (3 votes)Sorry, but you must be logged in to rate this tab.
Click here to log-in, or you can click here to register.
(Registration is free)

All songs owned by corresponding publishing company. If you make copies of any song on this website, be sure to report your usage to CCLI.
Submitted by: Relient k MmHmm

Artist:Relient K
Song:Pressing On
Tabbed by Corey R.

h=hammer down
/slide
*=palm mute
~=let ring out
Intro-
E--------------------------------
B--------------------------------
G-6------------------------------   X4
D-6-2h3-66-3---8-2h3-44-3--------
A-4-----66---6-8-----44---6------
E-------44-----6-----22----------

Verse-
E---------------------------------
B---------------------------------  X3
G-6-66666-6-66666-3-33333---------     Then, on forth time don't 
D-6-66666-6-66666-3-33333-4-44444-     palm mute anything.
A-4-44444-3-33333-1-11111-4-44444-
E-------------------------2-22222-
    *****   *****   *****   *****

Chorus part 1-
E-------------------------------------------------------------
B-------------------------------------------------------------
G-66/888-66/888-10 10/11 11 11-10 10/11 11 11-6-6-6-6---------
D-66/888-66/888-10 10/11 11 11-10 10/11 11 11-x-x-x-x-6-6-6-6- X2 
A-44/666-44/666- 8  8/ 9  9  9- 8  8/ 9  9  9-4-4-4-4-6-6-6-6- 
E-----------------------------------------------------4-4-4-4-
                  and after second time you go...
E---------------
B---------------
G---------------
D-4-4-4-4-6-6-6-
A-4-4-4-4-6-6-6-     PAUSE
E-2-2-2-2-4-4-4-  

Chorus-

E-------------------      --------------
B-------------------      --------------
G-666---------------      --------------
D-666-6666-888-4444-   X4 -444444/666~~~~~
A-444-6666-888-4444-      -444444/666~~~~~
E-----4444-666-2222-      -222222/444~~~~~

Slow Part
E-----------------------------------------------------------------
B-----------------------------------------------------------------
G-5---5---5---5---4---4---4---4---5---5---5---5---7---7---7---7---
D---5---5---5---5---5---5---5---5---5---5---5---5---5---5---5---5-
A-----------------------------------------------------------------
E-----------------------------------------------------------------

Ending-
E-------------------
B-------------------
G---------6~~~~~~~~-
D-4~~-6~~-6~~~~~~~~-
A-4~~-6~~-4~~~~~~~~-
E-2~~-4~~-----------


Order of song:
Intro X4
Verse X4
Chorus Part 1 X2
Chorus X4
Verse X4 
Chorus Part 1 X2
Chorus X4
Chorus X2
Intro X4
Part after chorus X1
PAUSE
Chorus SLOW X2
Chorus X2
Slow Part X3
Ending X1

Comments about this tab

sack - 2005-01-22

Uh.
Isn't the "slow part" on the 6th fret? But, besides that, it's not a bad tab.
Will


Relient k MmHmm - 2005-01-23

u r right it is on the 6th fret last night i looked at this saw the correction listened 2 the song and found out it was on the 6th fret not the 5th fret i had this tab on another site and its rated 5/5


schecterpunk127 - 2006-04-19

you showed that the intro has power chords. it is actually is two guitars playing two different things...though you might already know that...


Add a comment/correction

Complimentary Christian Ringtones
Dadamobile and CGR have teamed up to bring your favorite Christian artists right to your phone. Sign up today and get 10 complementary ringtones!
Tab Country
Did you know CGR has a sister site w/ country guitar tabs? Well we do! Its called Tab Country. It has a great archive with a lot of country tabs.
Rockin Tabs
Are you looking for a site that has rock guitar tabs? Then Rockintabs.com is the place for you. It is a budding site with many rock guitar tabs. Submit your tab today.
Tab Gallery
Tab Gallery has a compilation of christian, rock, and country tabs all in one place. Come visit us.