Guitar Tabs
song title    band name

Join Us Today!

Don't strum alone...
be a part of the largest online Christian music community. Browse thousands of guitar tabs and chat w/ musicians like yourself.


It's Free!

This tab has been rated a 3.00 out of 5 for accuracy. (1 vote)Sorry, but you must be logged in to rate this tab.
Click here to log-in, or you can click here to register.
(Registration is free)

All songs owned by corresponding publishing company. If you make copies of any song on this website, be sure to report your usage to CCLI.
Submitted by: RK911

song:My girls Ex-boyfriend (intro)
band:Relient K
album:Mmhmm
tabbed by:Travis Manser

This is my first tab, it probably sucks but oh well.

E-----------------------------------------------------------------------
B-----------------------------------------------------------------------
G12-12-9----9-5-5-7-5-5-5-----------------------------------------------  x3
D--------12-------------------------------------------------------------
A-----------------------------------------------------------------------
E-----------------------------------------------------------------------

at ending of 3rd time 5~7~~

Comments about this tab

RK911 - 2004-12-11

This is Travis Manser,who did this tab.It's not 100% for sure,but give me some
slak im only 12


RK911 - 2004-12-11

oyea tll me how it is


ABAC-P - 2004-12-16

i think you've got the right notes, but you lay each one more than once


hot dog - 2004-12-20

close but I think it goes like this:
b-9-9-6-4-4-6-1-1-2-2-2-|


RK911 - 2004-12-21

what ever it dsnt mater


rimshot24 - 2005-01-03

this is a little off if u dont want to retune and still have it sound exactly like it does on the cd look on taborama.com


MusicfreakMario - 2005-07-25

Hey whats up you guys? ummm...i saw this tab and saw that it was different than the way that i played it so try it out like this ok? :

e3-3-0-------------3-3-0-------------3-3-0------------------
b-----3-5---3-1-1-------3-5---3-5-5-------3-5---3-1-1-1----3
g--------4-5---------------4-5---------------4-5------------
d-----------------------------------------------------------
a-----------------------------------------------------------
e-----------------------------------------------------------

So that's how i play it, if there's something wrong please correct me or if there's an easier way, you know what to do if there is.
-MusicfreakMario


Add a comment/correction

Complimentary Christian Ringtones
Dadamobile and CGR have teamed up to bring your favorite Christian artists right to your phone. Sign up today and get 10 complementary ringtones!
Tab Country
Did you know CGR has a sister site w/ country guitar tabs? Well we do! Its called Tab Country. It has a great archive with a lot of country tabs.
Rockin Tabs
Are you looking for a site that has rock guitar tabs? Then Rockintabs.com is the place for you. It is a budding site with many rock guitar tabs. Submit your tab today.
Tab Gallery
Tab Gallery has a compilation of christian, rock, and country tabs all in one place. Come visit us.