Guitar Tabs
song title    band name

Join Us Today!

Don't strum alone...
be a part of the largest online Christian music community. Browse thousands of guitar tabs and chat w/ musicians like yourself.


It's Free!

This tab has been rated a 5.00 out of 5 for accuracy. (6 votes)Sorry, but you must be logged in to rate this tab.
Click here to log-in, or you can click here to register.
(Registration is free)

All songs owned by corresponding publishing company. If you make copies of any song on this website, be sure to report your usage to CCLI.
Submitted by: mannamcdonald

Spoken: The Moment of Imperfect Clarity
Sleep Well Tonight (Track 5)

Intro:

E-----------------------------------------------------------------------
B-----------------------------------------------------------------------
G---8-8-8---8-8-8---10-10-10---10-10-10---10-10-10---10-10-10---8-8-8---
D---8-8-8---8-8-8---10-10-10---10-10-10---10-10-10---10-10-10---8-8-8---
A---6-6-6---6-6-6---8--8--8----8--8--8----8--8--8----8--8--8----6-6-6---
E-----------------------------------------------------------------------

E----------
B----------
G-4-4---6-6
D-4-4---6-6
A-2-2---4-4
E----------

Verse:

E-----------------------------------------------------------------------------
B-----------------------------------------------------------------------------
G---8-8-8---8-8-8---10-10-10---10-10-10---4-4-4---6-6-6---8-8-8---4-4/6-6-----
D---8-8-8---8-8-8---10-10-10---10-10-10---4-4-4---6-6-6---8-8-8---4-4/6-6-----
A---6-6-6---6-6-6---8--8--8----8--8--8----2-2-2---4-4-4---6-6-6---2-2/4-4-----
E-----------------------------------------------------------------------------

Chorus:
You're gonna have to upstroke, I'm only putting in the downstrokes. After the
"|", is what they play the second time around on the chorus. 

E-----------------------------------------------------------|-----------------
B-----------------------------------------------------------|-----------------
G---8-8-8--8-8-8---6-6-6--6-6-6---4-4-4--4-4-4---8-8t-8-----|---8-8--4--------
D---8-8-8--8-8-8---6-6-6--6-6-6---4-4-4--4-4-4---8-8t-8-----|---8-8--4--------
A---6-6-6--6-6-6---4-4-4--4-4-4---2-2-2--2-2-2---6-6t-6-----|---6-6--2--------
E-----------------------------------------------------------|-----------------

Bridge:
I'm not sure what kind of sound they're doing right here or how they do it but
here are the tabs.  The regular chorus part is playing with this.  For the
most part, you'll have to figure this one out.  Let me know if somebody out
there figures this part out.

E----------------------------------------------------------------
B----------------------------------------------------------------
G---15-15-15--13-13-13--11-11-11--8-8-8--------------------------
D----------------------------------------------------------------
A----------------------------------------------------------------
E----------------------------------------------------------------


That's it!  I hope this helps you all!

Comments about this tab

mannamcdonald - 2004-12-16

My first tab, how about that?! I'll have another tab coming soon.
mannamcdonald


Alextx89 - 2004-12-21

I'm pretty sure the effects they use for the bridge is wah-wah. awesome stuff, wish to see mor of it in our music today, but it is wah-wah, tab more spoken stuff, cuz they're awesome. awesome job on the tab tho


Alextx89 - 2004-12-21

o yea, try to tab out "seasons change" by spoken, that is the best song ever written, who-ha. bye


lilsk8rboi411 - 2005-01-22

they have seasons change chorus and bridge at www.mxtabs.net


hawknelson28 - 2005-03-10

someone needs to tab Falling Further i'm trying but not doing so well haha... so if someone could that would be wick awesome.

God Bless Tyler..


ImissDCtalk34 - 2005-04-09

YES! i totally agree! Falling Further needs to be on here. I love that video and that song as well.


mannamcdonald - 2005-05-27

which track and which cd is that song?


eclipse_047 - 2005-05-30

yes i am tryin to learn falling further. its spoken "A Moment Of Imerfect Clarity" i cant reamember what number it is


Add a comment/correction

Complimentary Christian Ringtones
Dadamobile and CGR have teamed up to bring your favorite Christian artists right to your phone. Sign up today and get 10 complementary ringtones!
Tab Country
Did you know CGR has a sister site w/ country guitar tabs? Well we do! Its called Tab Country. It has a great archive with a lot of country tabs.
Rockin Tabs
Are you looking for a site that has rock guitar tabs? Then Rockintabs.com is the place for you. It is a budding site with many rock guitar tabs. Submit your tab today.
Tab Gallery
Tab Gallery has a compilation of christian, rock, and country tabs all in one place. Come visit us.