Guitar Tabs
song title    band name

Join Us Today!

Don't strum alone...
be a part of the largest online Christian music community. Browse thousands of guitar tabs and chat w/ musicians like yourself.


It's Free!

This tab has been rated a 0.75 out of 5 for accuracy. (4 votes)Sorry, but you must be logged in to rate this tab.
Click here to log-in, or you can click here to register.
(Registration is free)

All songs owned by corresponding publishing company. If you make copies of any song on this website, be sure to report your usage to CCLI.
Submitted by: fliptheswitch01

Song: Who I Am Hates Who I've Been (Solo)
Artist: Relient K
Album: Mmhmm
Tabbed By: Casey Link

TUNING:half step down (Eb Ab Db Gb Bb Eb) 

guitar 1           2x
eb----------------------------------------------------------------|
Bb--5---9---7---5---4---5---7---4---4---5---4---5---7---9---4---5-|
Gb----------------------------------------------------------------|
Db----------------------------------------------------------------|
Ab----------------------------------------------------------------|
Eb----------------------------------------------------------------|

eb-----------------------------------------|
Bb-----55-4--------------------------------|
Gb-----------------------------------------|
Db-----------------------------------------|
Ab-----------------------------------------|
Eb-----------------------------------------|
                                                   
guitar 2
                   2x                      
eb----------------------------------------------------------------|
Bb----------------------------------------------------------------|
Gb--22222222--44444444--66666666----------------------------------|
Db--22222222--44444444--66666666--22222222------------------------|
Ab--00000000--22222222--44444444--22222222------------------------|
Eb--------------------------------00000000------------------------|

eb-----------------------------------------|
Bb-----------------------------------------|
Gb-----22-4--------------------------------|
Db-----22-4--------------------------------|
Ab-----00-2--------------------------------|
Eb-----------------------------------------|

Comments about this tab

RcKn'Rll247 - 2004-12-13

umm... i think that you got it wrong dude... or chick whatever... i didn't read the "credits"... anyways... if you go to mxtabs.net they have the correct song entirely, and in between all the notes you have there is an open...


Adam K - 2004-12-22

The solo part goes like this

A#-5/0-9/0-7/0-5/0-4/0-5/0-7/0-4/0--4/0-5/0-4/0-5/0-7/0-9/0-4/0-5--5-5-4----
F#-----------------------------------------------------------------4-4-4----


smoky7321 - 2006-09-05

hey um mxtabs is having some trouble... specificly they wont let u look at the tabs!


smoky7321 - 2006-09-05

o nvm i posted this on the wrong song. ;)


6strings21frets - 2007-02-10

Solo? What the heck! This is the intro!!


Add a comment/correction

Complimentary Christian Ringtones
Dadamobile and CGR have teamed up to bring your favorite Christian artists right to your phone. Sign up today and get 10 complementary ringtones!
Tab Country
Did you know CGR has a sister site w/ country guitar tabs? Well we do! Its called Tab Country. It has a great archive with a lot of country tabs.
Rockin Tabs
Are you looking for a site that has rock guitar tabs? Then Rockintabs.com is the place for you. It is a budding site with many rock guitar tabs. Submit your tab today.
Tab Gallery
Tab Gallery has a compilation of christian, rock, and country tabs all in one place. Come visit us.