Guitar Tabs
song title    band name

Join Us Today!

Don't strum alone...
be a part of the largest online Christian music community. Browse thousands of guitar tabs and chat w/ musicians like yourself.


It's Free!

This tab has been rated a 4.80 out of 5 for accuracy. (5 votes)Sorry, but you must be logged in to rate this tab.
Click here to log-in, or you can click here to register.
(Registration is free)

All songs owned by corresponding publishing company. If you make copies of any song on this website, be sure to report your usage to CCLI.
Submitted by: guitarsticks22

Relient K
Deck the Halls

Standard Tuning-EADGBE

This is a short but fun song. I really like Releint K's arrangement of this 
song. It has some pretty cool chords in it. Here it is:

INTRO- Guitar 1              Guiar 2                     Gutar 3
                         A    A/D      F#m      E
E[--------------------||-0-----0-----2-2-2-2-0-0-0-0--||(end of first time)
B[--------------------||-2-----2-----2-2-2-2-0-0-0-0--||-0--0--5-]
G[--------------------||-2-----2-----2-2-2-2-1-1-1-1--||-1--2--4-]
D[--------------------||-2-----0-----4-4-4-4-2-2-2-2--||
A[-2-4-5-2-4--2-0---0-||-0-----0-----4-4-4-4-2-2-2-2--||
E[----------------4---||-0-----0-----2-2-2-2-0-0-0-0--||

INTRO - 2nd time - A  F#mi   A   E

VERSE-                             on downbeats
E[-0------------0------------|---------------------------------12^-
B[-2------------2------------|---------------------------------10^-
G[-2------------2------------|-------------------------------------
D[-2-(let ring)-2-(let ring)-|-2-2-2-2-7-7-7-7-7-7-6-6-2-2-2-------
A[-0------------0------------|-2-2-2-2-7-7-7-7-7-7-7-7-2-2-2-------
E[-0------------0------------|-0-0-0-0-5-5-5-5-5-5-4-4-0-0-0-------

E[-0--------------2--0--0--0--]
B[-2--------------2--2--0--2--]
G[-2--------------2--2--1--2--]
D[-2-(let ring)---4--2--2--2--]
A[-0--------------4--0--2--0--]
E[-0--------------2--0--0--0--]

Then it does the little intro fiff agaian
Then the other guitars come in after it plays it once:

A/D   F#m   E

then during the fala la part it goes:

A    F#m   A     E     

and the song ends on:

A

At the end it has that digital sounding thing going and if you want to 
play it on guitar it goes:

E[-12--10-9--------------------]
B[----------12--10--12-14--10--]

That's it. It's a fun song. Too bad it isn't longer. Correct or add anything
if you want to.
Ya'll keep rockin . . . JO!!!
brandon- 

Comments about this tab

JonJo - 2004-12-28

The end of the song goes

e}12-10-9----------------------------------------
b}--------12-10-12-14-9-10-12-14-10-12-12-10-9-10(let ring)


brandon1 - 2005-11-30

The intro on this TAB (for guitar 1) didn't sound right, so i changed it around a bit. But the rest sounded great. Also the ending tab left out a part.
Intro
E[--------------------|
B[--------------------|
G[--------------------|
D[--------------------|
A[-2-h4/5/4--2--------|
E[-------------5-4-5--|
This plays 3 times. On the fourth, leave out the last three notes.
Then(the whole thing) plays three more times. Then it plays in the middle of the song (i guess there it would be called a bridge).

Ending
E[-12--10-9----------------------------------------------]
B[----------12-10-12-14--10----12h14/15\14--12-----------]
G[---------------------------------------------15-14-15~-]
The last part of the ending is the same as the intro, just moved to a different place.


Kazuki-chan - 2006-09-29

Are you sure they don't use power chords?


preacherkid13 - 2006-11-11

Ive never heard this song before. What album is it on?


legendary_chin - 2006-11-15

its on DECK THE HALLS BRUSE YOUR HAND, it was an all chrismas song...


spadehanger - 2006-11-21

do they sell that cd anymore??


jesusfreak13191 - 2007-02-19

Actually, the intro is perfect as he has it.

And the last part is correct so far, but is missing a few last notes. It really goes:
e[-12--10-9---------------------------------------------]
B[----------12--10--12-14--10--12-14-15-12-14--12-10-9-10]


Add a comment/correction

Complimentary Christian Ringtones
Dadamobile and CGR have teamed up to bring your favorite Christian artists right to your phone. Sign up today and get 10 complementary ringtones!
Tab Country
Did you know CGR has a sister site w/ country guitar tabs? Well we do! Its called Tab Country. It has a great archive with a lot of country tabs.
Rockin Tabs
Are you looking for a site that has rock guitar tabs? Then Rockintabs.com is the place for you. It is a budding site with many rock guitar tabs. Submit your tab today.
Tab Gallery
Tab Gallery has a compilation of christian, rock, and country tabs all in one place. Come visit us.