Guitar Tabs
song title    band name

Join Us Today!

Don't strum alone...
be a part of the largest online Christian music community. Browse thousands of guitar tabs and chat w/ musicians like yourself.


It's Free!

Ghoti Hook - Mach 3

This tab has not yet been rated for accuracy.Sorry, but you must be logged in to rate this tab.
Click here to log-in, or you can click here to register.
(Registration is free)

All songs owned by corresponding publishing company. If you make copies of any song on this website, be sure to report your usage to CCLI.
Mach 3
Ghoti Hook
CD: Cheapskates sampler
C1999 Solid State Records
Tab by Steve Cruickshank
(postlambjam@hotmail.com)


Intro:
e-------------------------------------------------------------------
B-------------------------------------------------------------------
G-------------------------------------------------------------------
D---4-4-----4-4-----4-4---7-------4-4-----4-4-----4-4---7-----------(x2)
A---2-2-----2-2-----2-2---5-------2-2-----2-2-----2-2---5-----------
E-------x-x-----x-x-----x-------------x-x-----x-x-----x-------------


e-------------------------------------------------------------------
B-------------------------------------------------------------------
G-------------------------------------------------------------------
D---4-4-----4-4-----4-4---7-------4-4-----4-4-----4-4-4-6-7-----7---(x2)
A---2-2-----2-2-----2-2---5-------2-2-----2-2-----2-2-2-4-5-5-7-5---
E-------x-x-----x-x-----x-------------x-x-----x-x-----------3-5-----


The chords played in the song are power chords (x244xx etc) but
I wanted to write in where the minors were anyway

Verse:
Bm                                    D
Broken on the inside, laughing on the outside
Bm                                 G  A
A smile that could break your heart
Bm                                         D
Crying on the bedspread, blacking out brain dead
Bm                          G  A
Wondering where you are-are-are


Chorus:
G           A     Bm                          G
This is the way I feel, with my hands over my heart
A            Bm
I pledge I'm real, bless me Father
G           A      Bm                            G    A      Em
I am weak I am not strong, and it doesn't matter if I get my way 

Verse 2:
Talking heads confuse me
They spit out words that knock me down
If I could be so disillusioned
Maybe I would not care
But...

[chorus]


Bridge:
e------------------------------------------------------------
B----------------------------------------5-5-4---------------
G----------------------------------4-----4-4-4--------------- (x2)
D---4--4-4-4-4-4-4---7\6-----4-----4-----4-4-4---------------
A---4--4-4-4-4-4-4---7\6-----4-----2-------------------------
E---2--2-2-2-2-2-2---5\4--0--2--0----------------------------
---    \\\\pm/////


Bridge part 2:
e----------12-12-12-12-12-12-12-12-12-12-12-12-12-12-12-12---
B-----------------------9--9--9--9---------------------------
G-----------9--9--9--9--9--9--9--9-11-11-11-11--9--9-11-11--- (x4)
D--7---------------------------------------------------------
A--5--7------------------------------------------------------
E-----5------------------------------------------------------
---D  A    E                       B            A    B


Bridge part 3:
e------------------------------------------------------------
B------------------------------------------------------------
G---7-7-7-7-7-7-7-7-7-7-7-9-9-9-9-9-9-9-9-------------------------
D------------------------------------------------------------
A------------------------------------------------------------
E------------------------------------------------------------
----G                     A
They took my esteem away  And I want this in your name


Solo: (rhythm guitar plays intro)
e--------------------------------------------------------------------------
B--------------------------------------------------------------------------
G--9b11-9b11-9b11-9b11-9b11r9\7-------7---------7---------7----9b11r9--7p4-
D-------------------------------9p7h9---9-9p7h9---9-9p7h9---9--------------
A--------------------------------------------------------------------------
E--------------------------------------------------------------------------
---Bm                  D        Bm                             D

e--------------------------------------------------------------------------
B--------------------------------------------------------------------------
G--------------------------------------------------------------------------
D--2-2-2-2-2/4-4-4-4-4/7-7-7-7-7/9-9-9-9-9--/12-12-12-9-/12-12-12-9-/12-12-
A--------------------------------------------------------------------------
E--------------------------------------------------------------------------
---Bm                            D           Bm                      D



Chorus at the end has 2nd guitar playing octaves over the G A Bm chords
e-------------------------
B-------------------------
G---14---12---11----------
D-------------------------
A---12---10----9----------
E-------------------------
----G    A    Bm

Comments about this tab

No comments/corrections found. Add your own

Complimentary Christian Ringtones
Dadamobile and CGR have teamed up to bring your favorite Christian artists right to your phone. Sign up today and get 10 complementary ringtones!
Tab Country
Did you know CGR has a sister site w/ country guitar tabs? Well we do! Its called Tab Country. It has a great archive with a lot of country tabs.
Rockin Tabs
Are you looking for a site that has rock guitar tabs? Then Rockintabs.com is the place for you. It is a budding site with many rock guitar tabs. Submit your tab today.
Tab Gallery
Tab Gallery has a compilation of christian, rock, and country tabs all in one place. Come visit us.