Guitar Tabs
song title    band name

Join Us Today!

Don't strum alone...
be a part of the largest online Christian music community. Browse thousands of guitar tabs and chat w/ musicians like yourself.


It's Free!

This tab has been rated a 4.00 out of 5 for accuracy. (1 vote)Sorry, but you must be logged in to rate this tab.
Click here to log-in, or you can click here to register.
(Registration is free)

All songs owned by corresponding publishing company. If you make copies of any song on this website, be sure to report your usage to CCLI.
Submitted by: turkweed

Song: The Impact of Reason
Artist: Underoath
Album: They're Only Seeking Safty
Tab by: Nico Brown
Email: n.i.c.o@sbcglobal.net
*turkweed did not tab this song, he just submitted it

Guitar 1: Intro:part1
e|------------------------------------
b|------------------------------------
g|----0--------0--------0--------0----
d|--4----4-4-4----4-4-4----4-4-4--4---
a|-2-2----2-2-2----2-2-2----2-2-2--2--
e|------------------------------------

Guitar2: Intro:part1 (silent first time)
e|------------------------------------
b|------------------------------------
g|------------------------------------
d|-9----------------------------------
a|-9-(strum)--------------------------
e|-7----------------------------------

Guitar 1: Intro:part2
e|------------------------------------
b|------------------------------------
g|----2~-------2~---------------------
d|--2----2-2-2------------------------
a|-0-0----0-0-0-----------------------
e|------------------------------------

Guitar 2: Intro:part2
e|-------------------------------------
b|-------------------------------------
g|-------------------------------------
d|-7-----------------------------------
a|-7-(strum)---------------------------
e|-5-----------------------------------

Guitar 1: Intro:part3
e|------------------------------------
b|------------------------------------
g|------------------------------------
d|------------------------------------   ?
a|------------------------------------
e|------------------------------------

Guitar 2:part3
e|------------------------------------
b|------------------------------------
g|------------------------------------
d|-5----------------------------------
a|-5-(strum)--------------------------
e|-3----------------------------------

________________________________________________________

Guitar 1 and 2: Verse1:
e|------------------------------------
b|------------------------------------
g|-4-------2--------------------------
d|-4-(x48)-2-(strum)-5----------------   x2
a|-2-------0---------5-(strum)--------
e|-------------------3----------------
   ^-down strokes
________________________________________________________

Guitar 1: Bridge1:part1
e|------------------------------------
b|------------------------------------
g|-4-444------4444--------------------
d|-4-444-(x4)-4444-24-----------------
a|-2-222------2222-24-----------------
e|-----------------02-----------------

Guitar 2: Bridge1:part1 (silent)

Guitar 1: Bridge:part2
e|-2-0-2-0-2-0-2-0-2-0-2-0-2-0-2-0-2-0-2-0-2-0-2-0--
b|--3-3-3-3-3-3-3-3-3-3-3-3-3-3-3-3-3-3-3-3-3-3-3-3-
g|--------------------------------------------------
d|--------------------------------------------------
a|--------------------------------------------------
e|--------------------------------------------------

Guitar 2: Bridge1:part2
e|-----------------
b|-----------------
g|-----------------
d|-5-7-9-4---------   x2
a|-5-7-9-4---------
e|-3-5-7-2---------

Guitar 1: Bridge1:part3
e|-0h1-11-00-------
b|-3---33-33-------
g|-----------------
d|-----------------   x7
a|-----------------
e|-----------------

Guitar 2: Bridge1:part3
e|-----------------
b|-----------------
g|-----------------
d|-5-7-9-4---------   x2
a|-5-7-9-4---------
e|-3-5-7-2---------

________________________________________________________

Guitar 1:verse2:part1
e|----------------------------------------------------
b|----------------------------------------------------
g|----0--------0--------0--------0--------0--------0--
d|--4----4-4-4----4-4-4----4-4-4----4-4-4----4-4-4----
a|-2-2----2-2-2----2-2-2----2-2-2----2-2-2----2-2-2---
e|----------------------------------------------------

Guitar2:verse2:part1
e|------------------------------------
b|------------------------------------
g|------------------------------------
d|-9----------------------------------
a|-9-(strum)--------------------------
e|-7----------------------------------

Guitar 1:verse2:part2
e|------------------------------------
b|------------------------------------
g|----2~-------2~---------------------
d|--2----2-2-2------------------------
a|-0-0----0-0-0-----------------------
e|------------------------------------

Guitar 2:verse2:part2
e|-------------------------------------
b|-------------------------------------
g|-------------------------------------
d|-7-----------------------------------
a|-7-(strum)---------------------------
e|-5-----------------------------------

Guitar 1:verse2:part3
e|------------------------------------
b|------------------------------------
g|------------------------------------
d|------------------------------------   ?
a|------------------------------------
e|------------------------------------

Guitar 2:verse2:part3
e|------------------------------------
b|------------------------------------
g|------------------------------------
d|-5----------------------------------
a|-5-(strum)--------------------------
e|-3----------------------------------

Guitar 1:verse2:part1 (again)
e|----------------------------------------------------
b|----------------------------------------------------
g|----0--------0--------0--------0--------0--------0--
d|--4----4-4-4----4-4-4----4-4-4----4-4-4----4-4-4----
a|-2-2----2-2-2----2-2-2----2-2-2----2-2-2----2-2-2---
e|----------------------------------------------------

Guitar2:verse2:part1 (again)
e|------------------------------------
b|------------------------------------
g|------------------------------------
d|-9----------------------------------
a|-9-(strum)--------------------------
e|-7----------------------------------

Guitar 1:verse2:part2 (again)
e|------------------------------------
b|------------------------------------
g|----2~-------2~---------------------
d|--2----2-2-2------------------------
a|-0-0----0-0-0-----------------------
e|------------------------------------

Guitar 2:verse2:part2 (again)
e|-------------------------------------
b|-------------------------------------
g|-------------------------------------
d|-7-----------------------------------
a|-7-(strum)---------------------------
e|-5-----------------------------------

Guitar 1:verse2:part3 (again)
e|------------------------------------
b|------------------------------------
g|------------------------------------
d|------------------------------------   ?
a|------------------------------------
e|------------------------------------

Guitar 2:verse2:part3 (again)
e|------------------------------------
b|------------------------------------
g|------------------------------------
d|-5----------------------------------
a|-5-(strum)--------------------------
e|-3----------------------------------

_________________________________________________________________

Guitar 1: Bridge2:part1
e|------------------------------05---05---05---05---05---05---05---05-
b|--03--0-03-03--03--0-03-03--03---03---03---03---03---03---03---03---
g|-2-----2--2---2-----2--2---2----2----2----2----2----2----2----2-----
d|--------------------------------------------------------------------
a|--------------------------------------------------------------------
e|--------------------------------------------------------------------

Guitar 2: Bridge2:part1
e|------------------------------------
b|------------------------------------
g|------------------------------------
d|-9---7---2---5---------------------- x2
a|-9---7---2---5----------------------
e|-7---5---0---3----------------------

Guitar 1: Bridge2:part2
e|-2---2---0--2---2---0--2---2---0--2---2---0--
b|--30--30--3--30--30--3--30--30--3--30--30--3-
g|---------------------------------------------
d|---------------------------------------------
a|---------------------------------------------
e|---------------------------------------------

Guitar 2: Bridge2:part2
e|------------------------------------
b|------------------------------------
g|------------------------------------
d|-9------7------2------5-------------
a|-9-(x8)-7-(x8)-2-(x8)-5-(x8)--------
e|-7------5------0------3-------------

_____________________________________________________________________

Guitar 1: Outro:part1
e|-----------------------
b|-----------------------
g|-----------------------
d|-5-7-9-4---------------   x2
a|-5-7-9-4---------------
e|-3-5-7-2---------------

Guitar 1: Outro:part2
e|-2222222222222222000000000000000555555555555555-
b|-3333333333333333333333333333333333333333333333-
g|------------------------------------------------
d|------------------------------------------------
a|------------------------------------------------
e|------------------------------------------------

Guitar 2: Outro:(plays during both part 1 and 2)
e|-----------------------
b|-----------------------
g|-----------------------
d|-5-7-9-4---------------   x4
a|-5-7-9-4---------------
e|-3-5-7-2---------------

Guitar 1 and 2: Outro:part3
e|------------------
b|------------------
g|------------------
d|-5--(let ring)----
a|-5----------------
e|-3----------------

Comments about this tab

nicox86x - 2005-01-06

*turkweed did not tab this song, he just submitted it
dude i dont know how that got on there. but i did tab the song. i spent 2 hours doign it...


ABAC-P - 2005-02-03

pretty good, but the intro is quite a bit off.


ABAC-P - 2005-02-03

allright he's the intro(this version's in drop d). I didnt tab this out, pophardpunk at powertabs.net did. He's got 7 of the 9 songs from tocs tabbed on there. check it out!

Gtr I
|----------------|----------------|----------------|----------------|
|----------------|----------------|----------------|----------------|
|-------0--------|-------0--------|-------0--------|-------0--------|
|---4------4---4-|---4------4---4-|---4------4---4-|---4------4---4-|
|-2---2------2---|-2---2------2---|-2---2------2---|-2---2------2---|
|----------------|----------------|----------------|----------------|

Gtr I
|-------------------------|-------------------------|
|-------------------------|-------------------------|
|-----------3s=2--------0-|-----------3s=2--------0-|
|-----4--------------4----|-----4--------------4----|
|--0-----0----------------|--0-----0----------------|
|-------------------------|-------------------------|
|
| Gtr II
|-------------------------|-------------------------|
|-------------------------|-------------------------|
|-------------------------|-------------------------|
|-11-11-11-11-11-11-11-11-|-11-11-11-11-11-11-11-11-|
|--7--7--7--7--7--7--7--7-|--7--7--7--7--7--7--7--7-|
|--7--7--7--7--7--7--7--7-|--7--7--7--7--7--7--7--7-|


D5/G
|-----------------|------------------|
|-------7-7-7-----|---7-7-7-----7-7--|
|-------7-7-7-----|---7-7-7-----7-7--|
|-5-5-5-------5-5-|-5-------5-5------|
|-5-5-5-------5-5-|-5-------5-5------|
|-5-5-5-------5-5-|-5-------5-5------|
|
|-----------------|------------------|
|-----------------|------------------|
|-----------------|------------------|
|-7-7-7-------7-7-|-7-------7-7-7-7--|
|-5-5-5-------5-5-|-5-------5-5-5-5--|
|-5-5-5-------5-5-|-5-------5-5-5-5--|


massi107 - 2006-12-06

Actually It is "There Only Chasing Safety"


Add a comment/correction

Complimentary Christian Ringtones
Dadamobile and CGR have teamed up to bring your favorite Christian artists right to your phone. Sign up today and get 10 complementary ringtones!
Tab Country
Did you know CGR has a sister site w/ country guitar tabs? Well we do! Its called Tab Country. It has a great archive with a lot of country tabs.
Rockin Tabs
Are you looking for a site that has rock guitar tabs? Then Rockintabs.com is the place for you. It is a budding site with many rock guitar tabs. Submit your tab today.
Tab Gallery
Tab Gallery has a compilation of christian, rock, and country tabs all in one place. Come visit us.