Guitar Tabs
song title    band name

Join Us Today!

Don't strum alone...
be a part of the largest online Christian music community. Browse thousands of guitar tabs and chat w/ musicians like yourself.


It's Free!

This tab has been rated a 3.00 out of 5 for accuracy. (2 votes)Sorry, but you must be logged in to rate this tab.
Click here to log-in, or you can click here to register.
(Registration is free)

All songs owned by corresponding publishing company. If you make copies of any song on this website, be sure to report your usage to CCLI.
Submitted by: jms122589

Artist:apologetix
cd:adamup
song sweet home oholibamah parody of sweet home alabama by lynyrd skynyrd
tuning eADGBE regular

Intro:
E--------------------------------------------------------------|
B--------3--------------3--------------3-----------------------|
G-----------2--------------0-----------0------------------2p0--|
D--0--0--------0--------------0--------0--------0h2p0----------|
A-----------------3--3----------------------0h2-------2p0------|
E--------------------------------3--3--------------------------|

E--------------------------------------------------------------|
B--------3--------------3--------------3-----------------------|
G-----------2--------------0-----------0----0-2--0-0-4--0-0-5--|
D--0--0--------0--------------0--------0-----------------------|
A-----------------3--3-----------------------------------------|
E--------------------------------3--3--------------------------|
   
         D              C              G
E--------------------------------------------------------------|
B--------3--------------3--------------3-----------------------|
G-----------2--------------0-----------0------------------2p0--|
D--0--0--------0--------------0--------0--------0h2p0----------|
A-----------------3--3----------------------0h2-------2p0------|
E--------------------------------3--3--------------------------|
         D              C              G
E--------------------------------------------------------------|
B--------3--------------3--------------3-----------------------|
G-----------2--------------0-----------0------------0----------|
D--0--0--------0--------------0--------0---------0-------------|
A-----------------3--3----------------------0h2----------------|
E--------------------------------3--3--------------------------|

1rst Verse:

         D              C              G
E--------------------------------------------------------------|
B--------3--------------3--------------3-----------------------|
G-----------2--------------0-----------0----------0----0-------|
D--0--0--------0--------------0--------0--------0--------2p0---|
A-----------------3--3----------------------0h2----------------|
E--------------------------------3--3--------------------------|
         D              C              G
E--------------------------------------------------------------|
B--------3--------------3--------------3------------3----------|
G-----------2--------------0-----------0------------0----------|
D--0--0--------0--------------0--------0------------0----------|
A-----------------3--3-----------------------------------------|
E--------------------------------3--3-------3--3---------------|
         D              C              G
E--------------------------------------------------------------|
B--------3--------------3--------------3-----------------------|
G-----------2--------------0-----------0----------0----0-------|
D--0--0--------0--------------0--------0--------0--------2p0---|
A-----------------3--3----------------------0h2----------------|
E--------------------------------3--3--------------------------|
         D              C              G
E--------------------------------------------------------------|
B--------3--------------3--------------3------------3----------|
G-----------2--------------0-----------0------------0----------|
D--0--0--------0--------------0--------0------------0----------|
A-----------------3--3-----------------------------------------|
E--------------------------------3--3-------3--3---------------|

E-----------------------------------------------------------|
B-----------------------------------------------------------|
G---------7----7--------------5--5----------------0---------| x2
D---------7----7--------------5--5----------------0---------|
A--7h8h9----------9\7----5h7--------7\5----0h1h2------------|
E------------------------------------------------------3----|

         D              C              G
E--------------------------------------------------------------|
B--------3--------------3--------------3-----------------------|
G-----------2--------------0-----------0----------0----0-------|
D--0--0--------0--------------0--------0--------0--------2p0---|
A-----------------3--3----------------------0h2----------------|
E--------------------------------3--3--------------------------|
         D              C              G
E--------------------------------------------------------------|
B--------3--------------3--------------3------------3----------|
G-----------2--------------0-----------0------------0----------|
D--0--0--------0--------------0--------0------------0----------|
A-----------------3--3-----------------------------------------|
E--------------------------------3--3-------3--3---------------|
         D              C              G
E--------------------------------------------------------------|
B--------3--------------3--------------3-----------------------|
G-----------2--------------0-----------0----------0----0-------|
D--0--0--------0--------------0--------0--------0--------2p0---|
A-----------------3--3----------------------0h2----------------|
E--------------------------------3--3--------------------------|
         D              C              G
E--------------------------------------------------------------|
B--------3--------------3--------------3-----------------------|
G-----------2--------------0-----------0----------0------------|
D--0--0--------0--------------0--------0--------0---2p0---0----|
A-----------------3--3----------------------0h2---------2------|
E--------------------------------3--3--------------------------|

Chorus:

E--------------------------------------------------------------|
B--------------------------------------------------------------|
G--------------------------------------------------------------|
D--7--7--9--7----5--5--7--5----------------------0h2p0--5------|
A--5--5--5--5----3--3--3--3----5--5----7----0h2---------3------|
E------------------------------3--3----3-----------------------|

E--------------------------------------------------------------|
B--------------------------------------------------------------|
G--------------------------------------------------------------|
D--7--7--9--7----5--5--7--5--0h2h5-0h2h5-0h2h5-0h2h5-0h2h5--5--|
A--5--5--5--5----3--3--3--3---------------------------------3--|
E--------------------------------------------------------------|

E--------------------------------------------------------------|
B--------------------------------------------------------------|
G--------------------------------------------------------------|
D--7--7--9--7----5--5--7--5----------------------0h2p0--5------|
A--5--5--5--5----3--3--3--3----5--5----7----0h2---------3------|
E------------------------------3--3----3-----------------------|

E--------------------------------------------------------------|
B--------------------------------------------------------------|
G--------------------------------------------------------------|
D--7--7--9--7----5--5--7--5------------------------------------|
A--5--5--5--5----3--3--3--3----5--5----7-----------------------|
E------------------------------3--3----3-----------------------|

1rst Solo:

Guitar 1

E-----------------------------|
B-----------------------------|
G-----------------------------|
D-------10--------------------|
A-------8--------10-----------|
E----------------8------------|

E---------2----|--------------|---------3----|---------3----|
B---------3----|---------1----|---------3----|---------3----|
G---------2----|---------0----|---------0----|---------0----| x2
D--0--0---0----|---------2----|---------0----|---------0----|
A--------------|--3--3---3----|---------2----|---------2----|
E--------------|--------------|--3--3---3----|--3--3---3----|

Guitar 2

E-17--15----14---------|--------------------------------------------|
B--------------15-15~~-|----13-12-----------------------------------|
G----------------------|-14-------14-12----12----12-14--12-14b-(15)-|
D----------------------|----------------14--------------------------|
A----------------------|--------------------------------------------|
E----------------------|--------------------------------------------|

E-------------------------|-----------------------------------------|
B-------------------------|-----------------------------------------|
G-------12-14-12-14b-(15)-|--------12-14-12-14----12-14-14b-(15)-14-|
D-12-14-------------------|--12-14-------------14-------------------|
A-------------------------|-----------------------------------------|
E-------------------------|-----------------------------------------|

E----------------------|--------------------------------------------|
B----------------------|--------------------------------------------|
G----12----------12----|--------------------------------------------|
D-14----14-12-14----14-|-9h10p9-------------------------------------|
A----------------------|--------10----------------------------------|
E----------------------|-----------10\9/10--------------------------|

2nd Verse:

         D              C              G
E--------------------------------------------------------------|
B--------3--------------3--------------3-----------------------|
G-----------2--------------0-----------0---------5--------0----|
D--0--0--------0--------------0--------0-------5--------0------|
A-----------------3--3-----------------------5--------1--------|
E--------------------------------3--3--------------------------|
         D              C              G
E--------------------------------------------------------------|
B--------3--------------3--------------3------------3----------|
G-----------2--------------0-----------0------------0----------|
D--0--0--------0--------------0--------0------------0----------|
A-----------------3--3-----------------------------------------|
E--------------------------------3--3-------3--3---------------|
         D              C              G
E--------------------------------------------------------------|
B--------3--------------3--------------3-----------------------|
G-----------2--------------0-----------0----------0----0-------|
D--0--0--------0--------------0--------0--------0--------2p0---|
A-----------------3--3----------------------0h2----------------|
E--------------------------------3--3--------------------------|
         D              C              G
E--------------------------------------------------------------|
B--------3--------------3--------------3-----------------------|
G-----------2--------------0-----------0----------0------------|
D--0--0--------0--------------0--------0--------0---2p0---0----|
A-----------------3--3----------------------0h2---------2------|
E--------------------------------3--3--------------------------|

Chorus:

E--------------------------------------------------------------|
B--------------------------------------------------------------|
G--------------------------------------------------------------|
D--7--7--9--7----5--5--7--5----------------------0h2p0--5------|
A--5--5--5--5----3--3--3--3----5--5----7----0h2---------3------|
E------------------------------3--3----3-----------------------|

E--------------------------------------------------------------|
B--------------------------------------------------------------|
G--------------------------------------------------------------|
D--7--7--9--7----5--5--7--5--0h2h5-0h2h5-0h2h5-0h2h5-0h2h5--5--|
A--5--5--5--5----3--3--3--3---------------------------------3--|
E--------------------------------------------------------------|

E--------------------------------------------------------------|
B--------------------------------------------------------------|
G--------------------------------------------------------------|
D--7--7--9--7----5--5--7--5----------------------0h2p0--5------|
A--5--5--5--5----3--3--3--3----5--5----7----0h2---------3------|
E------------------------------3--3----3-----------------------|

E--------------------------------------------------------------|
B--------------------------------------------------------------|
G--------------------------------------------------------------|
D--7--7--9--7----5--5--7--5------------------------------------|
A--5--5--5--5----3--3--3--3----5--5----7------5--5--5--7--5----|
E------------------------------3--3----3------3--3--3--3--3----|

2nd Solo:

Guitar 1

E--------------------------------------------------------------|
B--------------------------------------------------------------|
G--------------------------------------------------------------| x8
D--7--7--9--7----5--5--7--5------------------------------------|
A--5--5--5--5----3--3--3--3----5--5----7------5--5--5--7--5----|
E------------------------------3--3----3------3--3--3--3--3----|

E-----------------------------------------------------------|
B-----------------------------------------------------------|
G---------7----7--------------5--5----------------0---------| x2
D---------7----7--------------5--5----------------0---------|
A--7h8h9----------9\7----5h7--------7\5----0h1h2------------|
E------------------------------------------------------3----|

Guitar 2

E--------------------------|------------|---------------------------|
B--------------------------|------------|---------------------------|
G--------------------------|------------|-------12----12-15b-(17)---|
D-----5h7-8p7----8-8-7-8~~-|-5--------5-|-12h14----14---------------|
A-5h7----------------------|---8----8---|---------------------------|
E--------------------------|------------|---------------------------|

E-----------------------------------|-------------------------------|
B-----------------------------------|-------------------------------|
G-12-12----12-----------------------|-----------12--------12--------|
D-------14----14p12-12--12-12--12~~-|-12-14-12-----14p12-----14p12--|
A-----------------------------------|-------------------------------|
E-----------------------------------|-------------------------------|

E-------------------------------------------------------------------|
B-------------------------------------------------------------------|
G--12--------12----------12--------12----------12--------12---------|
D-----14p12-----14p12-------14p12-----14p12-------14p12-----14p12---|
A-------------------------------------------------------------------|
E-------------------------------------------------------------------|

E-------------------------------------------------------------------|
B-------------------------------------------------------------------|
G--12--------12----------12--------12-------------------------------|
D-----14p12-----14p12-------14p12-----14p12----14-----12--14p12h14--|
A-------------------------------------------------14----------------|
E-------------------------------------------------------------------|
                                    /         slight bend        \
E-----------------------------12-|--15-15-15-15----15-15--15-15-15--|
B-----------------12h15p12h15----|----------------------------------|
G--12h14p12h14/15----------------|----------------------------------|
D--------------------------------|----------------------------------|
A--------------------------------|----------------------------------|
E--------------------------------|----------------------------------|
   /    slight bend    \
E--15-15--15-15-15----15-13--12p10h12p10-|-12-10-10--12-12-12-12-12-|
B----------------------------------------|--------------------------|
G----------------------------------------|--------------------------|
D----------------------------------------|--------------------------|
A----------------------------------------|--------------------------|
E----------------------------------------|--------------------------|

E-12-10-10--10-12-12-10--10-12-12-10-|-12--10------10---------------|
B------------------------------------|---------12------12--10--12---|
G------------------------------------|------------------------------|
D------------------------------------|------------------------------|
A------------------------------------|------------------------------|
E------------------------------------|------------------------------|

E--------------------|----------------------------------------------|
B--------------------|----------------------------------------------|
G-12-9---------------|---------------------------------9------------|
D------12-9----------|--------------------------12p10----12--12-12--|
A-----------12-10----|-10-12-12-12--12p10-12p10---------------------|
E-----------------12-|----------------------------------------------|

E-----------------------------10----------10h12-|-19-19----19p17p15-|
B---------10h12---------10h12----12p10h12-------|-------------------|
G----9h12----------9h12-------------------------|-------------------|
D-12--------------------------------------------|-------------------|
A-----------------------------------------------|-------------------|
E-----------------------------------------------|-------------------|

E-17p15p12-------------------------------------------------12-15~~--|
B----------15p12h15p12----------------------------------12----------|
G----------------------14p12----12~~--\--15-15-12~~--12-------------|
D----------------------------14-------------------------------------|
A-------------------------------------------------------------------|
E-------------------------------------------------------------------|

3rd Verse:

         D              C              G
E--------------------------------------------------------------|
B--------3--------------3--------------3-----------------------|
G-----------2--------------0-----------0----------0----0-------|
D--0--0--------0--------------0--------0--------0--------2p0---|
A-----------------3--3----------------------0h2----------------|
E--------------------------------3--3--------------------------|
         D              C              G
E--------------------------------------------------------------|
B--------3--------------3--------------3------------3----------|
G-----------2--------------0-----------0------------0----------|
D--0--0--------0--------------0--------0------------0----------|
A-----------------3--3-----------------------------------------|
E--------------------------------3--3-------3--3---------------|
         D              C              G
E--------------------------------------------------------------|
B--------3--------------3--------------3-----------------------|
G-----------2--------------0-----------0----------0----0-------|
D--0--0--------0--------------0--------0--------0--------2p0---|
A-----------------3--3----------------------0h2----------------|
E--------------------------------3--3--------------------------|
        D              C              G
E--------------------------------------------------------------|
B--------3--------------3--------------3-----------------------|
G-----------2--------------0-----------0----------0------------|
D--0--0--------0--------------0--------0--------0---2p0---0----|
A-----------------3--3----------------------0h2---------2------|
E--------------------------------3--3--------------------------|


Chorus:

Guitar 1

E--------------------------------------------------------------|
B--------------------------------------------------------------|
G--------------------------------------------------------------|
D--7--7--9--7----5--5--7--5----------------------0h2p0--5------|
A--5--5--5--5----3--3--3--3----5--5----7----0h2---------3------|
E------------------------------3--3----3-----------------------|

E--------------------------------------------------------------|
B--------------------------------------------------------------|
G--------------------------------------------------------------|
D--7--7--9--7----5--5--7--5--0h2h5-0h2h5-0h2h5-0h2h5-0h2h5--5--|
A--5--5--5--5----3--3--3--3---------------------------------3--|
E--------------------------------------------------------------|

E--------------------------------------------------------------|
B--------------------------------------------------------------|
G--------------------------------------------------------------|
D--7--7--9--7----5--5--7--5----------------------0h2p0--5------|
A--5--5--5--5----3--3--3--3----5--5----7----0h2---------3------|
E------------------------------3--3----3-----------------------|

E--------------------------------------------------------------|
B--------------------------------------------------------------|
G--------------------------------------------------------------|
D--7--7--9--7----5--5--7--5---------------------10-------------|
A--5--5--5--5----3--3--3--3----5--5----7--------8-----10-------|
E------------------------------3--3----3--------------8--------|

E--------------------------------------------------------------|
B--------------------------------------------------------------|
G--------------------------------------------------------------|
D--7--7--9--7----5--5--7--5----------------------0h2p0--5------|
A--5--5--5--5----3--3--3--3----5--5----7----0h2---------3------|
E------------------------------3--3----3-----------------------|

E--------------------------------------------------------------|
B--------------------------------------------------------------|
G--------------------------------------------------------------|
D--7--7--9--7----5--5--7--5--0h2h5-0h2h5-0h2h5-0h2h5-0h2h5--5--|
A--5--5--5--5----3--3--3--3---------------------------------3--|
E--------------------------------------------------------------|

E--------------------------------------------------------------|
B--------------------------------------------------------------|
G--------------------------------------------------------------|
D--7--7--9--7----5--5--7--5----------------------0h2p0--5------|
A--5--5--5--5----3--3--3--3----5--5----7----0h2---------3------|
E------------------------------3--3----3-----------------------|

E--------------------------------------------------------------|
B--------------------------------------------------------------|
G--------------------------------------------------------------|
D--7--7--9--7----5--5--7--5------------------------------------|
A--5--5--5--5----3--3--3--3----5--5----7------5--5--5--7--5----|
E------------------------------3--3----3------3--3--3--3--3----|

Guitar 2

E--------------------------------------------------------------|
B--------------------------------------------------------------|
G-----------12h14p12h14-----14-----12--------------------------|
D----12h15--------------------------------15p12----------------|
A--------------------------------------------------------------|
E--------------------------------------------------------------|

Outro:

E--------------------------------------------------------------|
B--------------------------------------------------------------|
G--------------------------------------------------------------| x3
D--7--7--9--7----5--5--7--5------------------------------------|
A--5--5--5--5----3--3--3--3----5--5----7------5--5--5--7--5----|
E------------------------------3--3----3------3--3--3--3--3----|

E--------------------------------------------------------------|
B--------------------------------------------------------------|
G--------------------------------------------------------------| x3
D--7--7--9--7----5--5--7--5----------------------0h2p0--5------|
A--5--5--5--5----3--3--3--3----5--5----7----0h2---------3------|
E------------------------------3--3----3-----------------------|


hey i got another song for apologetix since lakin this is off there adam up  
cd its really acurate this is my 3rd apologetix tab so hope u enjoy
any questions email jms122589 AIM jms122589 pleas rate email me tell me what u
think im out

Comments about this tab

lionsden - 2004-12-15

Don't know about the tab, but the title of the song/parody is simply "Sweet Oholibamah". I checked the CD to be sure.


jms122589 - 2005-01-11

o yea i forgot im just used to writing sweet home alabama u could probally put them on her under that non christian bands but have a christian or faith based message section i thaught i saw that on here a bit ago


Add a comment/correction

Complimentary Christian Ringtones
Dadamobile and CGR have teamed up to bring your favorite Christian artists right to your phone. Sign up today and get 10 complementary ringtones!
Tab Country
Did you know CGR has a sister site w/ country guitar tabs? Well we do! Its called Tab Country. It has a great archive with a lot of country tabs.
Rockin Tabs
Are you looking for a site that has rock guitar tabs? Then Rockintabs.com is the place for you. It is a budding site with many rock guitar tabs. Submit your tab today.
Tab Gallery
Tab Gallery has a compilation of christian, rock, and country tabs all in one place. Come visit us.