Guitar Tabs
song title    band name

Join Us Today!

Don't strum alone...
be a part of the largest online Christian music community. Browse thousands of guitar tabs and chat w/ musicians like yourself.


It's Free!

This tab has been rated a 3.33 out of 5 for accuracy. (3 votes)Sorry, but you must be logged in to rate this tab.
Click here to log-in, or you can click here to register.
(Registration is free)

All songs owned by corresponding publishing company. If you make copies of any song on this website, be sure to report your usage to CCLI.
Submitted by: guitarsticks22

Standard tuning:EADGBE

INTRO-
E[-1-1-1-1-1-4-4-4-1-1-1-----------------]
B[-4-4-4-2-2-2-2---2-2-2-2-2-2-2-2-------]
G[---------------3-------3-3-1-1---------]
D[-------------------------------4-------]
A[---------------------------------------]
E[---------------------------------------]
He pretty much just repeats that for the verse

Verse-guitar 2
E[-------------------9-----------------9---------]
B[--6-7--9--7--7--9----9--7-7--6--7--9---9--8----]
G[-----------------------------------------------]
D[-----------------------------------------------]
A[-----------------------------------------------]
E[-----------------------------------------------]
He does some different pickings like that on those notes for the second 
half of the verse

they end the verse on:
E[--1---]
B[--2---]
G[--1---]

CHORUS-
E[------------------------------------------------------------------
B[--7-7-7-7-7-7-7-7-9-9-9-9-9-9-9-9-7-7-7-7-7-7-7-7-----------------
G[--6-6-6-6-6-6-6-6-8-8-8-8-8-8-8-8-6-6-6-6-6-6-6-6-6-6-6-6-6-6-6-6-
D[--4-4-4-4-4-4-4-4-4-6-6-6-6-6-6-6-4-4-4-4-4-4-4-4-6-6-6-6-6-6-6-6-
A[--------------------------------------------------4-4-4-4-4-4-4-4-
E[------------------------------------------------------------------
At the end of the chorus just end on the Db power chord

there is also another guitar on the choruses going
E[-1-1-1-1-4-4-4-4-1-1-1-1-----------------------]
B[-2-2-2-2-4-4-4-4-2-2-2-2-2-2-4-4--2--4--2--4---]
G[-------------------------1-1-3-3---------------]
D[-----------------------------------------------]
A[-----------------------------------------------]
E[-----------------------------------------------]

on the outro it goes
E[-9----4----2----4----9----4----2----4----]
B[-9----4----2----4----9----4----2----4----]
G[-6----6----3----6----6----6----3----3----]
D[-----------------------------------------]

That's it. Correct or add anything if you want.
Ya'll keep rockin.. . . JO!!!
brandon- the 14yr old guitar man
i would love to chat if you have AIM. my screen name is guitarsticks22
The second verse is just the same as the first (the intro on guitar 1 and 
the picking on guitar 2)

the bridge is just the intro palm muted, then there is another guitar going-
E[-------------------]
B[-2---1-------------]
G[---------3-----1---]

The other part is picking on Gb6, Ab6, and Db

The little pickups to to the chorus is
E[-------------------]
B[-------------------]
G[--6-6-6-8-8-8-8----]
D[--6-6-6-8-8-8-8----]
A[--4-4-4-6-6-6-6----]
E[-------------------]

Comments about this tab

njsk8rboy - 2005-02-11

i would like 2 talk 2 peeps 2(i like the 2 button)


paintballer1087 - 2005-08-05

hey everyone, i thought i'd share this with all of you, i got this from the everyday sunday website:

Hey everyone. Andrew, our guitar player is moving on in life, and Everyday Sunday is looking for a new guitar player as we're in getting ready to do our 3rd album. We're very excited about the new album, so if you're interested or know anyone interested in auditioning you can send a video playing "Gypsy Girl", "Comfort Zone", and "I Wish I Could Say" to the following address... we'll keep you all updated. Thanks so much.
-Everyday Sunday

Everyday Sunday Auditions
3545 Bigby Hollow Court
Columbus, OH 43228


goodwood505 - 2006-03-24

hey guyz i just wanted to share that ive met trey pearson he was at our youth group and hes flipping awesome.


stratocaster - 2006-04-23

i saw them tonight at my church! they rock!


Add a comment/correction

Complimentary Christian Ringtones
Dadamobile and CGR have teamed up to bring your favorite Christian artists right to your phone. Sign up today and get 10 complementary ringtones!
Tab Country
Did you know CGR has a sister site w/ country guitar tabs? Well we do! Its called Tab Country. It has a great archive with a lot of country tabs.
Rockin Tabs
Are you looking for a site that has rock guitar tabs? Then Rockintabs.com is the place for you. It is a budding site with many rock guitar tabs. Submit your tab today.
Tab Gallery
Tab Gallery has a compilation of christian, rock, and country tabs all in one place. Come visit us.