Guitar Tabs
song title    band name

Join Us Today!

Don't strum alone...
be a part of the largest online Christian music community. Browse thousands of guitar tabs and chat w/ musicians like yourself.


It's Free!

This tab has been rated a 5.00 out of 5 for accuracy. (4 votes)Sorry, but you must be logged in to rate this tab.
Click here to log-in, or you can click here to register.
(Registration is free)

All songs owned by corresponding publishing company. If you make copies of any song on this website, be sure to report your usage to CCLI.
Submitted by: disciplesandals

Artist: Kutless
Song: Perspectives
Tuning: Standard

Tabbed By: Mike "DiscipleSandals" Sanders

This is probably the best song I've heard off the Sea of Faces album. Simple,
worship worthy, and fun. I've seen a few tabs here, they are good, but I 
found the Bridge was way off for the standard tuning one. So heres how I play
it with the song, it sounds nice. One Acoustic, one Electric, Heavy 
distortion for the pre chorus and chorus like Sea of Faces, verse could be 
played with distortion, but clean also sounds good for the picking.

e----2----2----4----6----0----4----6------------X----------------
B----2----2----4----6----0----4----6------------X----------------
G----3----4----6----8----1----5----7------------X----------------
D----4----4----6----8----2----6----8------------1----------------
A----4----2----4----6----2----6----8------------1----------------
E----2----X----X----X----0----4----6------------X----------------
    F#m   B   C#m  D#m   E   G#m  A#m     Alternative D#m
                                           
These are the chords you will be using       

Guitar 1: Acoustic
Guitar 2: Distortion Electric

Intro
Guitar 1: F#m B x4
Guitar 2: 
e-----------13------14----------------13------14-----------------
B---11----------14------------11----------14------14-------------
G----------------------------------------------------------------
D----------------------------------------------------------------
A----------------------------------------------------------------
E----------------------------------------------------------------

E--------13------14---------------------13--------14-------------
B--11--------14--------------11----------14-------------9----11--
G----------------------------------------------------------------
D----------------------------------------------------------------
A----------------------------------------------------------------
E----------------------------------------------------------------

Verse
Guitar 1: F#m B x4
Guitar 2:
e---------------------------------------------------13---14------
B--9----11--------9-------11---------------11-----------------14-
G----------------------------------------------------------------
D----------------------------------------------------------------
A----------------------------------------------------------------
E----------------------------------------------------------------

Pre Chorus
Guitar 1: G#m A#m B C#m B x1
Guitar 2: G#m A#m B C#m B x1

Chorus 
Guitar 1: F#m C#m B x2

Intro
Verse
Pre Chorus
Chorus

Bridge
Guitar 1: D#m C#m B x3
          Play E for the whole bar and end with an F#m
Guitar 2: D#m C#m B x3
          Play E for the whole bar and end on F#m

Chorus: Acoustic starts off this one, plays for a two full bars alone, minor
electric picking of the verse notes in the background.
Guitar 1: F#m C#m B x2 2nd time Guitar 2 kicks in with palmed distortion on
the B.
Guitar 2: 
e----------14---13-----------------------------------------------
B--11------------------9----9---11----7----------9-----11-----7--
G----------------------------------------------------------------
D---------------------------------------------------------------- x2 
A----------------------------------------------------------------
E----------------------------------------------------------------

End Chorus:  Song ends with 3 guitars, however optional.
Guitar 1: F#m C#m B
Guitar 2: F#m C#m B
Guitar 3:
e----------13---14-----------------------------------------------
B--11------------------9----9---11----7----------9-----11-----7--
G----------------------------------------------------------------
D---------------------------------------------------------------- x2 
A----------------------------------------------------------------
E----------------------------------------------------------------

Hopefully that's a little more helpful to my fellow guitar players who can't
quite tune their guitars to drop C# tuning. Just play this along with the
song, it sounds awesome to me, try it out and lemme know whatcha think
spike44@cogeco.ca or billiejoe_gd44@hotmail.com. Thanks guys, God Bless.

Comments about this tab

David wood - 2005-03-11

Thank you for doing this.I dislike taking my guitar out of tune!
'&'
#
#
#
__#__
( # )
[ 0 ]
\ === /
-----


FMstaticfreak - 2005-04-27

yes i agree...this version is much ezr! thank you!


sumfears - 2006-09-21

That's like a 100% Correct

I tabbed by ear 1st and I got all the chords (didn't bother with intro) and it's all just like I tabbed it :)


Add a comment/correction

Complimentary Christian Ringtones
Dadamobile and CGR have teamed up to bring your favorite Christian artists right to your phone. Sign up today and get 10 complementary ringtones!
Tab Country
Did you know CGR has a sister site w/ country guitar tabs? Well we do! Its called Tab Country. It has a great archive with a lot of country tabs.
Rockin Tabs
Are you looking for a site that has rock guitar tabs? Then Rockintabs.com is the place for you. It is a budding site with many rock guitar tabs. Submit your tab today.
Tab Gallery
Tab Gallery has a compilation of christian, rock, and country tabs all in one place. Come visit us.