Guitar Tabs
song title    band name

Join Us Today!

Don't strum alone...
be a part of the largest online Christian music community. Browse thousands of guitar tabs and chat w/ musicians like yourself.


It's Free!

This tab has been rated a 5.00 out of 5 for accuracy. (1 vote)Sorry, but you must be logged in to rate this tab.
Click here to log-in, or you can click here to register.
(Registration is free)

All songs owned by corresponding publishing company. If you make copies of any song on this website, be sure to report your usage to CCLI.
Submitted by: guitarsticks22

Jeremy Camp
Hallelujah 

Standard tuning: EADGBE

INTRO- it was pretty tricky to figure out (at least for me) 
correct me if im wrong

E[-----------------------------------------------------------]
B[------------------------3--------3(let ring)---------------]
G[------0-----(0)---------0--2-----2-0-2-4-(2)-(0)-----------]
D[---------0--(0)---0h2------0-----0(let ring)---------------]
A[-0h2-----0-------------------------------------------------]
E[-----------------------------------------------------------]
Thats pretty much what he keeps playin for the intro and some other parts
throughout the song. He changes it up slightly every time though.

Intro- guitar2

E[-------------------------------]
B[-----8--10--8--8--7-----8------]
G[--7------------------7---------]
D[-------------------------------]
A[-------------------------------]
E[-------------------------------]
he pretty much just repeats different versions of that for the second half
of the intro

VERSE-
E[----------------------------------]
B[-----3-----3--3------3----3--3----]
G[-----2-----2--2------2----2--2----]
D[-----0-----0--0------0----0--0----]
A[--------0--------0h2---0----------]
E[-0h2----0--------------0----------]
This is basically what he plays.He palm mutes everything but the D power chords 
He does a little improvising on this though,
but for the most part, this is what i think it is.

Chorus-
The guitar plays pretty much the same thing as the verse. Ther are no palm
mutes though. And there is another guitar doing some arpeggio on a D chord
and a Dsus.

Right before the second verse there is a small walkup on the guitar that
goes like this-

B[--5---7---8----10--------5---]


The verse and chorus are pretty much played the same as far as i can tell

Bridge-guitar 1

E[-----------------------------------------]
B[------3---3------3-------3--3------3-----]
G[------2---2------2-------2--2------2-----]
D[------0---0------0-------0--0------0-----]
A[-0--0---------0-----0--0--------0--------]
E[-----------------------------------------]
just repeat that for the bridge

guitar 2-bridge

E[------7------7------------------------7-------------]
B[---8-----10-----10--8-----8---10---8----10---8------]
G[-7---------------------7----------------------------]
D[----------------------------------------------------]
A[----------------------------------------------------]
E[----------------------------------------------------]
it pretty just does some picking on those notes

OUTRO-
E[------------------------2--2/-3--3-----------
B[-------3-3---3--3-------3--3/-3--3-----------
G[-------2-2---2--2--0----2--2/-0--0-----------
D[--0----0-0---0--0--0h2--0--0/----------------
A[--0h2----------------------------------------
E[---------------------------------------------

That's it. It was sort of tough for me to figure out, all the pickin and 
everything, but that's what i think it is, or at least close to it.

Ya'll keep rockin    JO!!
brandon - the 14yr old guitar man
i would love to chat if you have AIM. my screen name is guitarsticks22
JO!!

Comments about this tab

guitarsticks22 - 2005-02-04

i'm sorry, i just found out that this tab is actually called In Your Presence


Add a comment/correction

Complimentary Christian Ringtones
Dadamobile and CGR have teamed up to bring your favorite Christian artists right to your phone. Sign up today and get 10 complementary ringtones!
Tab Country
Did you know CGR has a sister site w/ country guitar tabs? Well we do! Its called Tab Country. It has a great archive with a lot of country tabs.
Rockin Tabs
Are you looking for a site that has rock guitar tabs? Then Rockintabs.com is the place for you. It is a budding site with many rock guitar tabs. Submit your tab today.
Tab Gallery
Tab Gallery has a compilation of christian, rock, and country tabs all in one place. Come visit us.