Guitar Tabs
song title    band name

Join Us Today!

Don't strum alone...
be a part of the largest online Christian music community. Browse thousands of guitar tabs and chat w/ musicians like yourself.


It's Free!

This tab has been rated a 5.00 out of 5 for accuracy. (2 votes)Sorry, but you must be logged in to rate this tab.
Click here to log-in, or you can click here to register.
(Registration is free)

All songs owned by corresponding publishing company. If you make copies of any song on this website, be sure to report your usage to CCLI.
Submitted by: B-rad

Song: God of My Life
Artist: Jonah33
Words: Korey Cooper
Music: Jonah33

Here is the 100% percent perfect correct version of the song! The other
ones are off! 
Intro:

E--------------------------------
B-------------------------------
G-----0--------------------------      x2
D--------4-----2--0----0--------
A-----------------------------2b
E-3-------3---------3-----3-----

Verse

E-------------------------------------------------------------------
B-------------------------------------------------------------------
G---0-------------------------------------0-------------------------
D------4-----2--0-----0----------------------4-----2-0------0-------
A----------------------------2b-----------------------------------2b
E-3-------3--------3-----3-----------0---------0--------0------0----

E---------------------------------------------------------
B--------------------------------------------1--------3---
G-----------------------------------------0--------0------    x2
D----5-4------5/7---7-7-7/9----9-------2--------4---------
A-0-------0------------------0------3--------5------------
E---------------------------------------------------------

Pre-chorus: C D E  OVER AND OVER 


Chorus: G  C  D
	  A  C  D   A------5b------ bend half

Bridge: B   F   G    F  then G--------2----
			       D------3----(3)b
			       A----3------
		                   Eó1-------

	 B   F   G    F then A---0h2-22-0h2-22


Bridge 2: is actually G/B slide the B note on the A string to C and play a C9
               G/B   C

Comments about this tab

B-rad - 2005-01-10

The Bridge is supposed to be E F G, excluding the B.


madskilz015 - 2005-01-25

Can anyone write the chords with the lyrics. I would deeply appreciate it. Thanx.


Laia - 2005-01-27

no we can't post the lyrics...

the A's and E's should be minors

the bridge is Em - D/F# - G F Am (2x)

i was sinking part is just a G


and the verse in chord form is: G Em Am C D (2x)


tree44 - 2005-02-14

In the chorus, I think the 'A' chord is actually Am x 4 followed by Am7 x 4.
so its
G C D
You are the God of my Life
Am Am7
And my song
C D
Forever


The.Pyro - 2005-03-05

The chords are all wrong check for my version uploaded on CGR.


B-rad - 2005-04-05

Naw dude, most people on this site don't have all the guitar knowledge, so I just simplify for the majority. So dudes, ease, and give a lil love from above.


penguin82 - 2005-05-24

Hey i like the tabs for the Jonah33 songs. Just wondering if some one could try and tab The Difference. Thanks!


TheRealNick - 2005-07-08

Here's the real verse, it's pretty much the same. Minor changes, but I'm 100% sure that this is accurate.

E-----------------------------------------------------------------------------|
B-----------------------------------------------------------------------------|
G---0------------------------0------------------------------------------------|
D-----4----2-0----0------------4----2-0----0----------------------------------|
A---------------------2b-----------------------2b-----------------------------|
E-3------3------3---3------0------0------0---0--------------------------------|

E-----------------------------------------------------------------------------|
B-----------------------------------------------------------------------------|
G-----------------------------4----------7------------------------------------|
D-----5---5/7-------7/9-----5---5------7--------------------------------------|
A-0-0---0-------0-0-------3---------/5----------------------------------------|
E-----------------------------------------------------------------------------|

Then Repeat that one more time and move into the Prechorus, which is awesome. The lyrics rawk. Hope this helps.


TheRealNick - 2005-07-08

Sorry bout that, I hate it when it does that. Lemme fix it.

E------------------------------------------------------------------------|
B------------------------------------------------------------------------|
G---0------------------------0-------------------------------------------|
D-----4----2-0----0------------4----2-0----0-----------------------------|
A---------------------2b-----------------------2b------------------------|
E-3------3------3---3------0------0------0---0---------------------------|

E------------------------------------------------------------------------|
B------------------------------------------------------------------------|
G-----------------------------4----------7-------------------------------|
D-----5---5/7-------7/9-----5---5------7---------------------------------|
A-0-0---0-------0-0-------3---------/5-----------------------------------|
E------------------------------------------------------------------------|

Do that one more time and move into the prechorus. This song is the real deal.


Torie(p_4J) - 2005-12-31

Great Tab ! if ur playing the chorus n stuff on acoustic or something then the A and B and E or whatever should be Minors but its right because most ppl who play this song will use barre chords!


Add a comment/correction

Complimentary Christian Ringtones
Dadamobile and CGR have teamed up to bring your favorite Christian artists right to your phone. Sign up today and get 10 complementary ringtones!
Tab Country
Did you know CGR has a sister site w/ country guitar tabs? Well we do! Its called Tab Country. It has a great archive with a lot of country tabs.
Rockin Tabs
Are you looking for a site that has rock guitar tabs? Then Rockintabs.com is the place for you. It is a budding site with many rock guitar tabs. Submit your tab today.
Tab Gallery
Tab Gallery has a compilation of christian, rock, and country tabs all in one place. Come visit us.