Guitar Tabs
song title    band name

Join Us Today!

Don't strum alone...
be a part of the largest online Christian music community. Browse thousands of guitar tabs and chat w/ musicians like yourself.


It's Free!

This tab has been rated a 4.50 out of 5 for accuracy. (4 votes)Sorry, but you must be logged in to rate this tab.
Click here to log-in, or you can click here to register.
(Registration is free)

All songs owned by corresponding publishing company. If you make copies of any song on this website, be sure to report your usage to CCLI.
Submitted by: undertone

Revolution
All Songs Written by Tim & Jon Neufeld
©2004 Birdwing Music / Starfield Publishing Designee / ASCAP / Admin. by EMI Music CMG Publishing
Except "Ordinary Life" and "Revolution" Written by Matt Bronleewe and Tim & Jon Neufeld

OK - I added the copyright info which I copied directly from their website.

Capo 2 (chords relative to capo)

   Em   C    G    Dsus2/B (or Bm7 take your pick)
e--0----0----3----0--------2
B--0----1----0----3--------3
G--0----0----0----2--------2
D--2----2----0----0--------4
A--2----3----2----2--------2
E--0----x----3----x--------x

Same pattern (Em-C-G-Dsus2/B) for verse, pre-chorus, chorus


I think that the bridge goes like this

   Em   C    G    Dsus2/B  Em   G    C
e--0----0----3----0--------0----3----0----
B--0----1----0----3--------0----0----1----
G--0----0----0----2--------0----0----0----
D--2----2----0----0--------2----0----2----
A--2----3----2----2--------2----2----3----
E--0----x----3----x--------0----3----x----


2nd guitar over intro & chorus (not relative to capo)
(distortion, delay, whatever you have - you know the drill)

e------------------------------------------------
B-14-14-14-14-14-14-14-14-15-15-15-15-15-15-15-15
G-14-14-14-14-14-14-14-14-14-14-14-14-14-14-14-14
D------------------------------------------------
A------------------------------------------------
E------------------------------------------------

e------------------------------------------------
B-14-14-14-14-14-14-14-14-14-14-14-14-14-14-14-14
G-14-14-14-14-14-14-14-14-13-13-13-13-13-13-13-13
D------------------------------------------------
A------------------------------------------------
E------------------------------------------------


A riff that can be played at the beginning of the song
sort of a pre-intro.  It is not what they are playing 
but it fits so its what I’m going to play.  Anyway, it sounds 
like they’re playing a resonator “Dobro” type guitar. 
(relative to capo - because it is easier to play with capo on)

e------------------------------------------------
B------------------------------------------------
G------------------------------------------------
D-----2-(x)-2--5-----5--------5-(x)-2--4-----4---
A-----------------3-----2-----------------2-----2
E--0-----------------------3---------------------
(x) mute string


The lick at the end of the chorus
(relative to capo - 2 times)

e------------------------------------------------
B------------------------------------------------
G----------------------------5--5----------------
D-0--2--0--2--0--2--0--2--0--5--5----------------
A-0--2--0--2--0--2--0--2--0--3--3----------------
E-0--0--0--0--0--0--0--0--0----------------------


Here is same lick at the end of the chorus with power chords
(no capo).  2 different ways take your pick.  I think they both work.

This goes with the power chords on the other post.

e------------------------------------------------
B------------------------------------------------
G--------------------------7--7------------------
D--4--4--4--4--4--4--4--4--7--7------------------
A--4--4--4--4--4--4--4--4--5--5------------------
E--0--2--0--2--0--2--0--2------------------------

or

e------------------------------------------------
B------------------------------------------------
G--------------------------7--7------------------
D--2--4--2--4--2--4--2--4--7--7------------------
A--2--4--2--4--2--4--2--4--5--5------------------
E--2--2--2--2--2--2--2--2------------------------



Comments about this tab

undertone - 2005-06-28

It sounds like there is more going on in this riff. I added a couple of F# notes on the D string at the 16th fret. Let me know what you think.

2nd guitar over intro & chorus (not relative to capo)
(distortion, delay, whatever you have - you know the drill)

e------------------------------------------------
B-14-14-14-14-14-14-14-14-15-15-15-15-15-15-15-15
G-14-14-14-14-14-14-14-14-14-14-14-14-14-14-14-14
D------------------------------------------------
A------------------------------------------------
E------------------------------------------------

e------------------------------------------------
B-14-14----14-14----14-14-14-14-14-14-14-14-14-14
G-14-14----14-14----14-14-13-13-13-13-13-13-13-13
D-------16-------16------------------------------
A------------------------------------------------
E------------------------------------------------


woggins - 2006-12-22

I noticed that the chorus sounded kinda funny so i tried to see if i could find anything and i came up with this..-
e------------------------------------------------------------------------------------------------
B--14-14-14-14-14-14-14-14-15-15-15-15-15-15-15-15-14-14-14-14-14-14-12-14-12-12-12-12-12-12-12-12
G--14-14-14-14-14-14-14-14-14-14-14-14-14-14-14-14-14-14-14-14-14-14-14-14-14-14-14-14-14-14-14-14
D------------------------------------------------------------------------------------------------
A------------------------------------------------------------------------------------------------
E------------------------------------------------------------------------------------------------


Chink 182 - 2007-10-23

You guys are really close, but I think the 2nd guitar in the intro goes something like this:
e------------------------------------------------
B-14-14-14-14-14-14-14-14-15-15-15-15-15-15-15-15
G-14-14----14-14-14----14-14-14----14-14-14----14
D------------------------------------------------
A------------------------------------------------
E------------------------------------------------

e------------------------------------------------
B-14-14-14-14-14----------14-14-14-14-14-14-12---
G-14-14-14-14-14-12-14-12-13-13-13-13-13-------13
D------------------------------------------------
A------------------------------------------------
E------------------------------------------------


Chink 182 - 2007-10-23

Sorry, messed up on the second part, it should go like this:
e------------------------------------------------
B-14-14-14-14-14-14-14-14-15-15-15-15-15-15-15-15
G-14-14----14-14-14----14-14-14----14-14-14----14
D------------------------------------------------
A------------------------------------------------
E------------------------------------------------

e------------------------------------------------
B-14-14-14-14-14-12-14-12-14-14-14-14-14-14-12---
G-14-14-14-14-14----------13-13-13-13-13-------13
D------------------------------------------------
A------------------------------------------------
E------------------------------------------------


Add a comment/correction

Complimentary Christian Ringtones
Dadamobile and CGR have teamed up to bring your favorite Christian artists right to your phone. Sign up today and get 10 complementary ringtones!
Tab Country
Did you know CGR has a sister site w/ country guitar tabs? Well we do! Its called Tab Country. It has a great archive with a lot of country tabs.
Rockin Tabs
Are you looking for a site that has rock guitar tabs? Then Rockintabs.com is the place for you. It is a budding site with many rock guitar tabs. Submit your tab today.
Tab Gallery
Tab Gallery has a compilation of christian, rock, and country tabs all in one place. Come visit us.