Guitar Tabs
song title    band name

Join Us Today!

Don't strum alone...
be a part of the largest online Christian music community. Browse thousands of guitar tabs and chat w/ musicians like yourself.


It's Free!

This tab has been rated a 5.00 out of 5 for accuracy. (5 votes)Sorry, but you must be logged in to rate this tab.
Click here to log-in, or you can click here to register.
(Registration is free)

All songs owned by corresponding publishing company. If you make copies of any song on this website, be sure to report your usage to CCLI.
Submitted by: 21Frets

Song;We Want To See Jesus Lifted High
Artist; Matt Redman(I am not really sure who wrote it,
several people have kinda claimed it!)
 
This is a great song. Here are the tabs for it.
                Intro (x4)
E----------------------------------------
B----------------------------------------
G----------7-7-7----9-9-9----10-x-9-x----
D-5-5-5----7-7-7----9-9-9----10-x-9-x-5--
A-5-5-5----5-5-5----7-7-7-----7-x-7-x-5--
E-3-3-3-------------------------------3--
              Verse (x2)
E---------------------------------------------------
B---------------------------------------------------
G----------7-7-x-x-7-7-x-x-9-9-x-x-9-9-x-x-10-x-7---
D-5-5-5-5--7-7-x-x-7-7-x-x-9-9-x-x-9-9-x-x-10-x-7-5-
A-5-5-5-5--5-5-x-x-5-5-x-x-7-7-x-x-7-7-x-x--7-x-5-5-
E-3-3-3-3-----------------------------------------3-
             Chorus (2x)
E---------------------------------------------------
B---------------------------------------------------
G----------7-7-7----9-9-9---10-x-7-x----------------
D-5-5-5----7-7-7----9-9-9---10-x-7-x----------------
A-5-5-5----5-5-5----7-7-7----7-x-5-x----------------
E-3-3-3---------------------------------------------
           
              Bridge (2x)         
E-------------------------------------------
B-------------------------------------------
G-----7-7-7-7-9-9-10-10-10-7-7-7--7-7-------
D-5-5-7-7-7-7-9-9-10-10-10-7-7-7--7-7-5-5-5-
A-5-5-5-5-5-5-7-7--7--7--7-5-5-5--5-5-5-5-5-
E-3-3---------------------------------3-3-3-
There it is. Really fun song. Please comment.Thanks.

Comments about this tab

21Frets - 2004-11-28

There is a finger picking part, but I didn't know it
or I would have included it in there. Also, the verse is
suppose to be stacatto, I forgot to write it in though. Anyway,
its my first tab so I probably screwed up alot. If so, sorry!


21Frets - 2004-12-29

I should also add that this is the way
I play it for my youth group, my own
version. I only put it under Matt Redman
because it was the only person who had it.


21Frets - 2005-01-04

Thanks for the 5!


litaichi - 2005-03-12

It's written by Doug Horley


aaron22 - 2005-07-17

nice tab i liked it


21Frets - 2005-07-23

Thanks Man


animedraw8 - 2006-04-17

dis is realy cool but we have a youth band that we have our own chords that we use but we will try to test this tabs because its right in tone thnx..... rock and roll Christians!!!


vill_servant - 2006-04-26

hey! bros. cud you post the solo guitar or adlib... after the cho. i love that song... God Bless


Add a comment/correction

Complimentary Christian Ringtones
Dadamobile and CGR have teamed up to bring your favorite Christian artists right to your phone. Sign up today and get 10 complementary ringtones!
Tab Country
Did you know CGR has a sister site w/ country guitar tabs? Well we do! Its called Tab Country. It has a great archive with a lot of country tabs.
Rockin Tabs
Are you looking for a site that has rock guitar tabs? Then Rockintabs.com is the place for you. It is a budding site with many rock guitar tabs. Submit your tab today.
Tab Gallery
Tab Gallery has a compilation of christian, rock, and country tabs all in one place. Come visit us.