Guitar Tabs
song title    band name

Join Us Today!

Don't strum alone...
be a part of the largest online Christian music community. Browse thousands of guitar tabs and chat w/ musicians like yourself.


It's Free!

This tab has not yet been rated for accuracy.Sorry, but you must be logged in to rate this tab.
Click here to log-in, or you can click here to register.
(Registration is free)

All songs owned by corresponding publishing company. If you make copies of any song on this website, be sure to report your usage to CCLI.
Submitted by: undertone

Revolution

Capo 2 (chords relative to capo)

   Em   C    G    Dsus2/B (or Bm7 take your pick)
e--0----0----3----0--------2
B--0----1----0----3--------3
G--0----0----0----2--------2
D--2----2----0----0--------4
A--2----3----2----2--------2
E--0----x----3----x--------x

Same pattern (Em-C-G-Dsus2/B) for verse, pre-chorus, chorus 


2nd guitar over intro & chorus (not relative to capo)
(distortion, delay, whatever you have - you know the drill)

e------------------------------------------------
B-14-14-14-14-14-14-14-14-15-15-15-15-15-15-15-15
G-14-14-14-14-14-14-14-14-14-14-14-14-14-14-14-14
D------------------------------------------------
A------------------------------------------------
E------------------------------------------------

e------------------------------------------------
B-14-14-14-14-14-14-14-14-14-14-14-14-14-14-14-14
G-14-14-14-14-14-14-14-14-13-13-13-13-13-13-13-13
D------------------------------------------------
A------------------------------------------------
E------------------------------------------------


Another lick during verse (2 times)
(relative to capo - because it is easier to play with capo on)

e------------------------------------------------
B------------------------------------------------
G------------------------------------------------
D-----2-(x)-2--5-----5--------5-(x)-5--4-----4---
A-----------------3-----2-----------------2-----2
E--0-----------------------3---------------------
(x) mute string


One more thing, the lick at the end of the chorus
(relative to capo - 2 times)

e------------------------------------------------
B------------------------------------------------
G----------------------------5--5----------------
D-0--2--0--2--0--2--0--2--0--5--5----------------
A-0--2--0--2--0--2--0--2--0--3--3----------------
E-0--0--0--0--0--0--0--0--0----------------------

Comments about this tab

No comments/corrections found. Add your own

Complimentary Christian Ringtones
Dadamobile and CGR have teamed up to bring your favorite Christian artists right to your phone. Sign up today and get 10 complementary ringtones!
Tab Country
Did you know CGR has a sister site w/ country guitar tabs? Well we do! Its called Tab Country. It has a great archive with a lot of country tabs.
Rockin Tabs
Are you looking for a site that has rock guitar tabs? Then Rockintabs.com is the place for you. It is a budding site with many rock guitar tabs. Submit your tab today.
Tab Gallery
Tab Gallery has a compilation of christian, rock, and country tabs all in one place. Come visit us.