Guitar Tabs
song title    band name

Join Us Today!

Don't strum alone...
be a part of the largest online Christian music community. Browse thousands of guitar tabs and chat w/ musicians like yourself.


It's Free!

This tab has been rated a 4.00 out of 5 for accuracy. (3 votes)Sorry, but you must be logged in to rate this tab.
Click here to log-in, or you can click here to register.
(Registration is free)

All songs owned by corresponding publishing company. If you make copies of any song on this website, be sure to report your usage to CCLI.
Submitted by: beetleboy89

Song: When I Go Down                                      ^
Artist: Relient K                                        / \
Album: mmHmm                                              #
                                                          #
Transcribed by: Cameron Secrest               `&         #
E-mail: beetleboy89@aol.com                    #          #
                                               #       /) # 
Gtr I (E A D G B E)  Acoustic                 #      ( |_#_(\   
Gtr II (E A D G B E) - Electric (Distortion)  _#_      \  =  /  
Gtr III (E A D G B E) - Acoustic             (   )      )   (   
                                             / 0 \     /  = .\  
4/4                                         ( === )   (  ___ .) 
                                             `---     `-----  
Intro:                                                                      
 Gtr I
|-----------------|-----------------|-----------------|------------------|
|-----------------|-----------------|-----------------|------------------|
|-----4-----4-----|-4-----4-----4---|-----4-----4-----|-4-----4-----4----|
|---2-----2-----2-|-----2-----2-----|---2-----2-----2-|-----2-----2------|
|-4-----4-----4---|---4-----4-----4-|-0-----0-----0---|---0-----0-----0--|
|-----------------|-----------------|-----------------|------------------|


|-----------------|-----------------|-----------------|-----------------|
|-----------------|-----------------|-----------------|-----------------|
|-----4-----4-----|-4-----4-----4---|-----4-----4-----|-4-----4-----4---|
|---2-----2-----2-|-----2-----2-----|---2-----2-----2-|-----2-----2-----|
|-4-----4-----4---|---4-----4-----4-|-----------------|-----------------|
|-----------------|-----------------|-0-----0-----0---|---0-----0-----0-|


Verse:
|-----------------|-----------------|-----------------|-----------------|
|-----------------|-----------------|-----------------|-----------------|
|-----4-----4-----|-4-----4-----4---|-----4-----4-----|-4-----4-----4---|  X4	
|---2-----2-----2-|-----2-----2-----|---2-----2-----2-|-----2-----2-----|	
|-4-----4-----4---|---4-----4-----4-|-0-----0-----0---|---0-----0-----0-|
|-----------------|-----------------|-----------------|-----------------|


Pre-chorus
|-----------------|-----------------|
|-----------------|-----------------|
|-----2-----2-----|-----4-----4-----|	X4
|---0-----0-----0-|---0-----0-----0-|
|-----------------|-----------------|
|-2-----2-----2---|-3-----3-----3---|

                             
|------------|-----------------|-----------------|------|
|------------|-----------------|-----------------|-2----|
|-----1------|-----------------|-0-0-0-0-0-0-0-0-|-2----|
|-2-2--------|---2-2-2-2-2-2-2-|-0-0-0-0-0-0-0-0-|-2----|
|-2-2--------|---2-2-2-2-2-2-2-|-2-2-2-2-2-2-2-2-|-0----|
|-0-0--------|---0-0-0-0-0-0-0-|-3-3-3-3-3-3-3-3-|------|


Chorus:

D		Dadd11/B		G		Asus	  A		

D		Dadd11/B		G		Asus	  A		


Intro 2:
|-----------------|-----------------|-----------------|-----------------|
|-----------------|-----------------|-----------------|-----------------|
|-----4-----4-----|-4-----4-----4---|-----4-----4-----|-4-----4-----4---|
|---2-----2-----2-|-----2-----2-----|---2-----2-----2-|-----2-----2-----|
|-4-----4-----4---|---4-----4-----4-|-0-----0-----0---|---0-----0-----0-|
|-----------------|-----------------|-----------------|-----------------|


|-----------------|-----------------|----------|--------|
|-----------------|-----------------|----------|--------|
|-----4-----4-----|-4-----4-----4---|----------|--------|
|---2-----2-----2-|-----2-----2-----|----------|--------|
|-4-----4-----4---|---4-----4-----4-|----------|--------|
|-----------------|-----------------|-0--------|--------|


Verse 2:
  Gtr II   
|-0-0-0-0-0--0-0-|--0-0-0--0-0-0-|-0-0-0-0-0--0-0-|--0-0-0--0-0-0-|
|-0-0-0-0-0--0-0-|--0-0-0--0-0-0-|-0-0-0-0-0--0-0-|--0-0-0--0-0-0-|
|-4-4-4-4-4--4-4-|--4-4-4--4-4-4-|-4-4-4-4-4--4-4-|--4-4-4--4-4-4-|	X4	
|-2-2-2-2-2--2-2-|--2-2-2--2-2-2-|-2-2-2-2-2--2-2-|--2-2-2--2-2-2-|
|-4-4-4-4-4--4-4-|--4-4-4--4-4-4-|-0-0-0-0-0--0-0-|--0-0-0--0-0-0-|
|----------------|---------------|----------------|---------------|


Pre-chorus 2:
  Gtr I
|-----------------|-----------------|
|-----------------|-----------------|
|-----2-----2-----|-----4-----4-----|	X8
|---0-----0-----0-|---0-----0-----0-|
|-----------------|-----------------|
|-2-----2-----2---|-3-----3-----3---|

   
  Gtr II                          
|------------|-----------------|-----------------|------|
|------------|-----------------|-----------------|------|
|------------|-----------------|-0---------------|-2----|
|-2----------|-----------------|-0---------------|-2----|
|-2----------|-----------------|-2---------------|-0----|
|-0----------|-----------------|-3---------------|------|


Chorus 2:

D		Dadd11/B		G		Asus	  A		

D		Dadd11/B		G		Asus	  A	


Bridge:
Part 1: 
  Gtr I

D       Dadd11/E      D        G   G/F#  	

Asus       A          G        G   G/F#	    

Em7                   Asus     A  

Part 2:

D5	     G          D5       G		X2
  
Part 3:
  Gtr I  
|-----------|------------|------------|---------|
|-----------|------------|------------|---------|
|-4------7--|------------|-4------11--|---------|	 X14	  
|-0------0--|------------|-0-------0--|---------|
|-----------|------------|------------|---------|
|-----------|------------|------------|---------|
(During Part 3, Guitar III plays a D5 for 32 measures, then rests for 
8 measures, then plays for a D5 again for 16 measures.) 


Ending Riff:      3/4          4/4
  Gtr II
|----------------|-----------|-----------|-----|
|----------------|-----------|-----------|-----|
|-7-7-7-7--------|-----------|-----------|-----|	X2
|-7-7-7-7--5-5S7-|-7-7-7-7-9S|4--4--5----|-----|
|-5-5-5-5--5-5S7-|-7-7-7-7-9S|4--4--5----|-----|
|----------3-3S5-|-5-5-5-5-7S|2--2--3----|-----|


Piano Interlude


Outro: 
  Gtr I
|-----------------|-------------------|-------------------|-----------------|
|-----------------|-------------------|-------------------|-----------------|
|-----4-----4-----|--4------4-----4---|-----4-----4-------|-4-----4-----4---|
|---2-----2-----2-|-------2-----2-----|---2-----2------2--|-----2-----2-----|
|-4-----4-----4---|-----4-----4-----4-|-0-----0-----0-----|---0-----0-----0-|
|-----------------|-------------------|-------------------|-----------------|
|
| Gtr III
|-----------------|-------------------|-------------------|---------------|
|-4---------------|-------------------|-------------------|---------------|
|-----------------|---------4---------|-------------------|---------------|
|-----------------|---------------4---|-4s6---------------|---------------|
|-----------------|-------------------|-------------------|---------------|
|-----------------|-------------------|-------------------|---------------|


|-----------------|-----------------|-------------------|-----------------|
|-----------------|-----------------|-------------------|-----------------|
|-----4-----4-----|-4-----4-----4---|-----4-----4-------|-4-----4-----4---|
|---2-----2-----2-|-----2-----2-----|---2-----2------2--|-----2-----2-----|
|-4-----4-----4---|---4-----4-----4-|-0-----0-----0-----|---0-----0-----0-|
|-----------------|-----------------|-------------------|-----------------|
|
|-----------------|-----------------|-------------------|-----------------|
|-5---------------|-4---------------|-------------------|-----------------|
|-----------------|---------4-------|-4s6---------------|-----------------|
|-----------------|-----------------|-------------------|-----------------|
|-----------------|-----------------|-------------------|-----------------|
|-----------------|-----------------|-------------------|-----------------|


|-----------------|--------|
|-----------------|--------|
|-----2-----2-----|-4------|
|---0-----0-----0-|-0------|
|-----------------|-5------|
|-2-----2-----2---|-3------|
|
|-----------------|--------|
|-3---------------|--------|
|-----------------|--------|
|-----------------|--------|
|-----------------|--------|
|-----------------|--------|

Tablature Legend: S -- slide 

Chords: D---------xx0232                           
        Dadd11/B--x20032
        Dadd11/E--xx2032
        D5--------xx023x
        G---------320033
        G/F#------200033
        A---------X02220
        Asus------x02230
	Em7-------022030 

I hope this tab was easy to understand. I had a lot of fun making it. This is  
a really great song and an awesome album!  E-mail me if you have any questions 
or comments.

Rock On!
     
     Cameron Secrest
*****************************************************************************
 Generated using Power Tab Editor by Brad Larsen - 
http://powertab.guitarnetwork.org *
*****************************************************************************

Comments about this tab

rkeman - 2004-11-25

This is the best rk song ever


rkeman - 2004-12-03

ummm..as i said i think the bridge is more like Bm A G F# A G F# Em Asus A


jamforchrist123 - 2005-04-19

Those Are Pretty Good Guitars You Typed Up There.


jamforchrist123 - 2005-04-19

Oh Yeah, Good Tab.


Guitar_Freak14 - 2005-06-07

I'm trying to play this song for a talent show and I need to find out what the hermonic part is for like one guitar can anyone help me?


Add a comment/correction

Complimentary Christian Ringtones
Dadamobile and CGR have teamed up to bring your favorite Christian artists right to your phone. Sign up today and get 10 complementary ringtones!
Tab Country
Did you know CGR has a sister site w/ country guitar tabs? Well we do! Its called Tab Country. It has a great archive with a lot of country tabs.
Rockin Tabs
Are you looking for a site that has rock guitar tabs? Then Rockintabs.com is the place for you. It is a budding site with many rock guitar tabs. Submit your tab today.
Tab Gallery
Tab Gallery has a compilation of christian, rock, and country tabs all in one place. Come visit us.