Guitar Tabs
song title    band name

Join Us Today!

Don't strum alone...
be a part of the largest online Christian music community. Browse thousands of guitar tabs and chat w/ musicians like yourself.


It's Free!

Ghoti Hook - I See Red

This tab has not yet been rated for accuracy.Sorry, but you must be logged in to rate this tab.
Click here to log-in, or you can click here to register.
(Registration is free)

All songs owned by corresponding publishing company. If you make copies of any song on this website, be sure to report your usage to CCLI.
+------------------------------------------+
\  Artist     :  Ghoti Hook                 \
/  Song       :  I See Red                  /
\  Instrument :  Guitar                     \
/  Tabbed by  :  Mike!    /
\___________________________________________\

  +---+---+---+---+---+---+
  | D | A | G | B | C | F |
  +---+---+---+---+---+---+
e-| - | - | - | - | - | - |
B-| - | - | - | - | - | - |
G-| 7 | - | - | 4 | 5 | - |
D-| 7 | 7 | 5 | 4 | 5 | 3 |
A-| 5 | 7 | 5 | 2 | 3 | 3 |
E-| - | 5 | 3 | - | - | 1 |
  +---+---+---+---+---+---+

Intro: D  A G A G  (x4)

D
She wore blue
            A
her back of blue shoes
D                            A
she wore green, they wear it anyway
D
She and the car
                      A
went back through the red light
D                    A        D
stop i forgot all my memories

B     C        F     D
I see red when I see you
B     C       F  D
bells ring at 3 Am
B     C    F          D
I get mad, drinks get spilled
B         C     F
Five past two I dont feel sad
         D
But then I see you and I see red

D  A G A G  (x2)

D
I cant look down
           A
Or I might follow you
D                      A
I might follow in your footsteps
D
I see your shoulder the sun down
A
Whats the luck
    D                       A          D
And I had to hunt, I had to hunt you up

B     C        F     D
I see red when I see you
B     C       F  D
bells ring at 3 Am
B     C    F          D
I get mad, drinks get spilled
B         C     F
Five past two I dont feel sad
         D
But then I see you and I see red

Guitar 1: After Guitar 2 repeats twice
e-|-------------------------10-10-10-10-12-12^13-13-|
B-|-10-10-10-10-13-13-12-12-------------------------|
G-|-------------------------------------------------|
D-|-------------------------------------------------|
A-|-------------------------------------------------|
E-|-------------------------------------------------|
Guitar 2: F D

F F D D F F D D

F
Dont feel sad
         D
But then I see you
F
Dont feel sad
         D
But then I see you
And I see red

D  A G A G  (x2)

D                                        A
He sees the sun come up and she needs to rest
D                                      A
Here it comes creeping so close to the bed
D                              A
Goodbye to darkness I see your shining face
D                              A            D
Shes always thinking about the facts of love

B     C        F     D
I see red when I see you
B     C       F  D
bells ring at 3 Am
B     C    F          D
I get mad, drinks get spilled
B         C     F
Five past two I dont feel sad
         D
But then I see you and I see red

D  A G A G  (x2)

Guitar 1:
e-|------8-10-10-10-10-10-10-10-10------8-10-10-10-10-10-10-10-10-|
B-|-8-10---10-10-10-10-10-10-10-10-8-10---10-10-10-10-10-10-10-10-|
G-|---------------------------------------------------------------|
D-|---------------------------------------------------------------|
A-|---------------------------------------------------------------|
E-|---------------------------------------------------------------|

e-|------------------------------------------------------------------------|
B-|-8-10-8-5-6-6-6-5-6-6-6-5-6-6-6-8-8-8-8-5-6-6-6-5-6-6-6-5-6-6-6-8-8-8-8-|
G-|--------7-7-7-7-7-7-7-7-7-7-7-7-7-7-7-7-7-7-7-7-7-7-7-7-7-7-7-7-7-7-7-7-|
D-|------------------------------------------------------------------------|
A-|------------------------------------------------------------------------|
E-|------------------------------------------------------------------------|

e-|-8-10-10-10-8-10-10-10-8-10-10-10-13-13-13-13-|        |-10-|
B-|-8-10-10-10-8-10-10-10-8-10-10-10-13-13-13-13-| \      |-10-|
G-|----------------------------------------------|  \ x4  |----|
D-|----------------------------------------------|  /     |----|
A-|----------------------------------------------| /      |----|
E-|----------------------------------------------|        |----|
Guitar 2: D  A G A G (repeats until end)

Comments about this tab

No comments/corrections found. Add your own

Complimentary Christian Ringtones
Dadamobile and CGR have teamed up to bring your favorite Christian artists right to your phone. Sign up today and get 10 complementary ringtones!
Tab Country
Did you know CGR has a sister site w/ country guitar tabs? Well we do! Its called Tab Country. It has a great archive with a lot of country tabs.
Rockin Tabs
Are you looking for a site that has rock guitar tabs? Then Rockintabs.com is the place for you. It is a budding site with many rock guitar tabs. Submit your tab today.
Tab Gallery
Tab Gallery has a compilation of christian, rock, and country tabs all in one place. Come visit us.