Guitar Tabs
song title    band name

Join Us Today!

Don't strum alone...
be a part of the largest online Christian music community. Browse thousands of guitar tabs and chat w/ musicians like yourself.


It's Free!

This tab has been rated a 4.60 out of 5 for accuracy. (5 votes)Sorry, but you must be logged in to rate this tab.
Click here to log-in, or you can click here to register.
(Registration is free)

All songs owned by corresponding publishing company. If you make copies of any song on this website, be sure to report your usage to CCLI.
Submitted by: Switchfooter07

Subseven:Dirt Roads
Album: Subseven:The EP
C  2004 Flicker Records

Drop D tunning
~=hold

Intro
Guitar 1 (0:00)
|---------------|
|---------------|
|--9-10--10-10--| x16
|--9-10--10-10--|
|---------------|
|---------------|

Guitar 2 (0:00)
(Hold then, deaded it)
|-----------|
|-----------|
|-----------|
|-0~----8~--| x2
|-0~----8~--|
|-0~----8~--|

Guitar 1 (0:22)         (0:41)
|---------------|      |----------|
|---------------|      |----------|
|--9-10--10-10--| x14  |--10~-----|
|--9-10--10-10--|      |--10~-----|
|---------------|      |----------|
|---------------|      |----------|  

Guitar 2 (0:22)
|------------------------------------|
|------------------------------------|
|------------------------------------|
|-0~-0~-0~-0~------8~-8~-8~-8~-------| x2
|-0~-0~-0~-0~------8~-8~-8~-8~-------|
|-0~-0~-0~-0~3-2-0-8~-8~-8~-8~3-2-0--|

Verse
Guitar 1 and 2 (0:45)
(palm muted, chugging)

|-------------------------------------------------|
|-------------------------------------------------|
|-------------------------------------------------|
|-------3-3-3-3-3-3-3-3-3------2------------------| x4
|---------1-1-1-1-1-1-1-1--------0-0-0-0-0-0-0-0--|
|-3-2-0------------------3-2-0---0-0-0-0-0-0-0-0--|

Chorus
Guitar 1 and 2 (1:08)
|----------------------------------------|
|-------5-6-------5-6-------5-6-----5-6--|
|----------------------------------------|
|-3-3-3-----3-3-3-----0-0-0----0-0-0-----| x2
|-3-3-3-----3-3-3-----0-0-0----0-0-0-----|
|-3-3-3-----3-3-3-----0-0-0----0-0-0-----|

Guitar 1 amd 2 (1:19)
|-------7-8-------7-8-------7-8-----7-8--|
|-------5-6-------5-6-------5-6-----5-6--|
|----------------------------------------|
|-3-3-3-----3-3-3-----0-0-0----0-0-0-----| x2
|-3-3-3-----3-3-3-----0-0-0----0-0-0-----|
|-3-3-3-----3-3-3-----0-0-0----0-0-0-----|

Verse
Guitar 1 and 2 (1:30)
(palm muted, chugging)
|-------------------------------------------------|
|-------------------------------------------------|
|-------------------------------------------------|
|-------3-3-3-3-3-3-3-3-3------2------------------| x2
|---------1-1-1-1-1-1-1-1--------0-0-0-0-0-0-0-0--|
|-3-2-0------------------3-2-0---0-0-0-0-0-0-0-0--|

Guitar 1 (1:41)         
|---------------|      
|---------------|      
|--9-10--10-10--| x8  
|--9-10--10-10--|     
|---------------|      
|---------------|      

Guitar 2 (1:41)
|------------------------------------|
|------------------------------------|
|------------------------------------|
|-0~-0~-0~-0~------8~-8~-8~-8~-------| 
|-0~-0~-0~-0~------8~-8~-8~-8~-------|
|-0~-0~-0~-0~3-2-0-8~-8~-8~-8~3-2-0--|

Chorus
Guitar 1 and 2 (1:53)
|----------------------------------------|
|-------5-6-------5-6-------5-6-----5-6--|
|----------------------------------------|
|-3-3-3-----3-3-3-----0-0-0----0-0-0-----| x2
|-3-3-3-----3-3-3-----0-0-0----0-0-0-----|
|-3-3-3-----3-3-3-----0-0-0----0-0-0-----|

Guitar 1 amd 2 (2:04)
|-------7-8-------7-8-------7-8-----7-8--|
|-------5-6-------5-6-------5-6-----5-6--|
|----------------------------------------|
|-3-3-3-----3-3-3-----0-0-0----0-0-0-----| x2
|-3-3-3-----3-3-3-----0-0-0----0-0-0-----|
|-3-3-3-----3-3-3-----0-0-0----0-0-0-----|

Bridge
Guitar 1 and 2 (2:15)
(palm muted)
|----------------------|    |-----|
|----------------------|    |-----|
|----------------------|    |-----|
|----------------------| x4 |-0~--|
|-3-3-3-3-3--0-0-0-0-0-|    |-0~--|
|-3-3-3-3-3--0-0-0-0-0-|    |-0~--|

Guitar 2 (2:35)         (2:55)
|---------------|      |-----|
|---------------|      |-----|
|--9-10--10-10--| x14  |--9~-|
|---------------|      |--8~-|
|---------------|      |-----|
|---------------|      |-----|

Guitar 1 and 2  (2:57)
(palm muted, chugging)
|-------------------------------------------------|
|-------------------------------------------------|
|-------------------------------------------------|
|-------3-3-3-3-3-3-3-3-3------2------------------| x2
|---------1-1-1-1-1-1-1-1--------0-0-0-0-0-0-0-0--|
|-3-2-0------------------3-2-0---0-0-0-0-0-0-0-0--|

Tabbed by Braden Lenny
Any questions or comments about tab? email me at ttbclenny@msn.com

Comments about this tab

rj51fan - 2005-01-14

Hey whoever wrote this tab out did an excellent job and i just want to say thanx and keep it up.and if you or anyone else can tab "faded letters" id appreciate it.


ryan_grooms22 - 2005-07-01

i think the intro goes like this though other then that you did a great job

e)------------------)
b)-8-10-10-10-10-10-)
g)-9-10-10-10-10-10-)
d)-0--0--0--0--0--0-)
a)-0--0--0--0--0--0-)
d)-0--0--0--0--0--0-)

peace and god bless
-ryan_grooms22


ryan_grooms22 - 2005-07-03

correcting myself you might want to leave out the open strings because i don't think it sounds right sorry
peace and god bless
-ryan_grooms22


m-mazi - 2006-03-09

these tabs are awesome!!! if anyone can figure out blinking lights that would be great!!!
God Bless!!!


Add a comment/correction

Complimentary Christian Ringtones
Dadamobile and CGR have teamed up to bring your favorite Christian artists right to your phone. Sign up today and get 10 complementary ringtones!
Tab Country
Did you know CGR has a sister site w/ country guitar tabs? Well we do! Its called Tab Country. It has a great archive with a lot of country tabs.
Rockin Tabs
Are you looking for a site that has rock guitar tabs? Then Rockintabs.com is the place for you. It is a budding site with many rock guitar tabs. Submit your tab today.
Tab Gallery
Tab Gallery has a compilation of christian, rock, and country tabs all in one place. Come visit us.