Guitar Tabs
song title    band name

Join Us Today!

Don't strum alone...
be a part of the largest online Christian music community. Browse thousands of guitar tabs and chat w/ musicians like yourself.


It's Free!

This tab has been rated a 5.00 out of 5 for accuracy. (7 votes)Sorry, but you must be logged in to rate this tab.
Click here to log-in, or you can click here to register.
(Registration is free)

All songs owned by corresponding publishing company. If you make copies of any song on this website, be sure to report your usage to CCLI.
Submitted by: black_guitarist

Song: This Week The Trend
Band: Relient K
Album: Mmhmm
Written By: Matt Thiessen
Copyright 2004 Gotee Records
Tabbed by: Edi K. (email me at diami_11@yahoo.com)

Tuning: Standard (E-A-D-G-B-E)

. = Palm mute



Intro: RIFF (1st guitar)
e|-------|-----------------------------|      e|---------------------------|
B|-------|-----------------------------|      B|--------------4-4----------|
G|-------|--5-5-3-3--------------------| x7   G|--5-5-3-3-5-5-----5-5-3-3-5|x1
D|--6-6--|----------------------5-5-6--|      D|---------------------------|
A|-------|----------3-3-4-4-6-6--------|      A|---------------------------|
E|-------|-----------------------------|      E|---------------------------|
     ^
ONLY PLAY ONCE


Intro: RHYTHM (2nd guitar) x2
e|--------------------------------------------------------------------
B|--------------------------------------------------------------------
G|--------------------------------------------------------------------
D|--6-6-6-6-6-6-6-6-6-6-6-6-6-6-6-6--6-6-6-6-6-6-6-6-6-6-6-6-6-6-6-6--
A|--6-6-6-6-6-6-6-6-6-6-6-6-6-6-6-6--6-6-6-6-6-6-6-6-6-6-6-6-6-6-6-6--
E|--4-4-4-4-4-4-4-4-4-4-4-4-4-4-4-4--4-4-4-4-4-4-4-4-4-4-4-4-4-4-4-4--

e|--------------------------------------------------------------------
B|--------------------------------------------------------------------
G|--6-6-6-6-6-6-6-6-6-6-6-6-6-6-6-6--6-6-6-6-6-6-6-6-6-6-6-6-6-6-6-6--
D|--6-6-6-6-6-6-6-6-6-6-6-6-6-6-6-6--6-6-6-6-6-6-6-6-6-6-6-6-6-6-6-6--
A|--4-4-4-4-4-4-4-4-4-4-4-4-4-4-4-4--4-4-4-4-4-4-4-4-4-4-4-4-4-4-4-4--
E|--------------------------------------------------------------------


Verse: Both guitars (Comes in on the second part of the verse)
e|--------------------------------------------------------------------
B|--------------------------------------------------------------------
G|-----------------------------------6-6-6-6-6-6-6-6-6-6-6-6-6-6-6-6--
D|--6-6-6-6-6-6-6-6-6-6-6-6-6-6-6-6--6-6-6-6-6-6-6-6-6-6-6-6-6-6-6-6--
A|--6-6-6-6-6-6-6-6-6-6-6-6-6-6-6-6--4-4-4-4-4-4-4-4-4-4-4-4-4-4-4-4--
E|--4-4-4-4-4-4-4-4-4-4-4-4-4-4-4-4-----------------------------------
      . . . . . . . . . . . . . . .  . . . . . . . . . . . . . . . .

e|--------------------------------------------------------------------
B|--------------------------------------------------------------------
G|-----------------------------------3-3-3-3-3-3-3-3-8-8-8-8-8-8-8-8--
D|--3-3-3-3-3-3-3-3-3-3-3-3-3-3-3-3--3-3-3-3-3-3-3-3-8-8-8-8-8-8-8-8--
A|--3-3-3-3-3-3-3-3-3-3-3-3-3-3-3-3--1-1-1-1-1-1-1-1-6-6-6-6-6-6-6-6--
E|--1-1-1-1-1-1-1-1-1-1-1-1-1-1-1-1-----------------------------------
    . . . . . . . . . . . . . . . .  . . . . . . . . . . . . . . . .


Chorus: Both guitars
e|----------------------------------------------------------------------
B|----------------------------------------------------------------------
G|--5-5-5-5-5-5-5-5--6-6-6-6-6-6-6-6-------------------8-8-8-8-8-8-8-8--   x2
D|--5-5-5-5-5-5-5-5--6-6-6-6-6-6-6-6--6-6-6-6-6-6-6-6--8-8-8-8-8-8-8-8--
A|--3-3-3-3-3-3-3-3--4-4-4-4-4-4-4-4--6-6-6-6-6-6-6-6--6-6-6-6-6-6-6-6--
E|------------------------------------4-4-4-4-4-4-4-4-------------------

e|----------------------------------------------------------------------
B|----------------------------------------------------------------------
G|--5-5-5-5-5-5-5-5--6-6-6-6-6-6-6-6-------------------8-8-8-8-8-8-8-8--
D|--5-5-5-5-5-5-5-5--6-6-6-6-6-6-6-6--6-6-6-6-6-6-6-6--8-8-8-8-8-8-8-8--
A|--3-3-3-3-3-3-3-3--4-4-4-4-4-4-4-4--6-6-6-6-6-6-6-6--6-6-6-6-6-6-6-6--
E|------------------------------------4-4-4-4-4-4-4-4-------------------
    . . . . . . . .  . . . . . . . .  . . . . . . . .  . . . . . . . .

e|-----------------------------------
B|-----------------------------------
G|--6-6-6-6-6-6-6-6-6-6-6-6-6-6-6-6--
D|--6-6-6-6-6-6-6-6-6-6-6-6-6-6-6-6--
A|--4-4-4-4-4-4-4-4-4-4-4-4-4-4-4-4--
E|-----------------------------------
    . . . . . . . . . . . . . . . .


REPEAT VERSE

Interlude: Main riff (1st guitar)
e|-----------------------------|	e|-----------------------------|
B|-----------------------------|	B|--------------4-4------------|
G|--5-5-3-3--------------------|   x3	G|--5-5-3-3-5-5-----5-5-3-3-5--|   x1
D|----------------------5-5-6--|	D|-----------------------------|
A|----------3-3-4-4-6-6--------|	A|-----------------------------|
E|-----------------------------|	E|-----------------------------|


Interlude: Rhythm (2nd guitar)
e|--------------------------------------------------------------------
B|--------------------------------------------------------------------
G|--------------------------------------------------------------------
D|--6-6-6-6-6-6-6-6-6-6-6-6-6-6-6-6--6-6-6-6-6-6-6-6-6-6-6-6-6-6-6-6--
A|--6-6-6-6-6-6-6-6-6-6-6-6-6-6-6-6--6-6-6-6-6-6-6-6-6-6-6-6-6-6-6-6--
E|--4-4-4-4-4-4-4-4-4-4-4-4-4-4-4-4--4-4-4-4-4-4-4-4-4-4-4-4-4-4-4-4--

e|--------------------------------------------------------------------
B|--------------------------------------------------------------------
G|--6-6-6-6-6-6-6-6-6-6-6-6-6-6-6-6--6-6-6-6-6-6-6-6-6-6-6-6-6-6-6-6--
D|--6-6-6-6-6-6-6-6-6-6-6-6-6-6-6-6--6-6-6-6-6-6-6-6-6-6-6-6-6-6-6-6--
A|--4-4-4-4-4-4-4-4-4-4-4-4-4-4-4-4--4-4-4-4-4-4-4-4-4-4-4-4-4-4-4-4--
E|--------------------------------------------------------------------


REPEAT VERSE
REPEAT CHORUS


Interlude 2: Main riff (1st guitar)
e|------------------------------------------------------------
B|------------------------------------------------------------
G|--5-5-3-3---------------------5-5-3-3-----------------------
D|----------------------5-5-6-----------------------5-5-6-3-3-
A|----------3-3-4-4-6-6-----------------3-3-4-4-6-6-----------
E|------------------------------------------------------------

e|-----------------------------------------------------------------
B|------4-4-------------------4-4----------------------------------
G|--5-5-----5-5-6-6-5-5-3-3-5-----5-5-3-3-5-5-3-3-5-3-----6--5-----
D|----------------------------------------------------5------------
A|--------------------------------------------------------------6--
E|-----------------------------------------------------------------


Interlude 2: Rhythm (2nd guitar)
e|--------------------------------------------------------------------
B|--------------------------------------------------------------------
G|-----------------------------------6-6-6-6-6-6-6-6-6-6-6-6-6-6-6-6--
D|--6-6-6-6-6-6-6-6-6-6-6-6-6-6-6-6--6-6-6-6-6-6-6-6-6-6-6-6-6-6-6-6--
A|--6-6-6-6-6-6-6-6-6-6-6-6-6-6-6-6--4-4-4-4-4-4-4-4-4-4-4-4-4-4-4-4--
E|--4-4-4-4-4-4-4-4-4-4-4-4-4-4-4-4-----------------------------------

e|--------------------------------------------------------------------
B|--------------------------------------------------------------------
G|-----------------------------------3-3-3-3-3-3-3-3-8-8-8-8-8-8-8-8--
D|--3-3-3-3-3-3-3-3-3-3-3-3-3-3-3-3--3-3-3-3-3-3-3-3-8-8-8-8-8-8-8-8--
A|--3-3-3-3-3-3-3-3-3-3-3-3-3-3-3-3--1-1-1-1-1-1-1-1-6-6-6-6-6-6-6-6--
E|--1-1-1-1-1-1-1-1-1-1-1-1-1-1-1-1-----------------------------------


Bridge: Both guitars
e|----------------------------------------------------------------------|
B|----------------------------------------------------------------------|
G|--6-6-6-6-6-6-6-6-------------------3-3-3-3-3-3-3-3-------------------|   x2
D|--6-6-6-6-6-6-6-6--6-6-6-6-6-6-6-6--3-3-3-3-3-3-3-3--3-3-3-3-3-3-3-3--|
A|--4-4-4-4-4-4-4-4--6-6-6-6-6-6-6-6--1-1-1-1-1-1-1-1--3-3-3-3-3-3-3-3--|
E|-------------------4-4-4-4-4-4-4-4-------------------1-1-1-1-1-1-1-1--|
    . . . . . . . .  . . . . . . . .  . . . . . . . .  . . . . . . . .

e|-----------------------------------------------------------------------
B|-----------------------------------------------------------------------
G|--6-6-6-6-6-6-6-6-6-6-6-6-6-6-6-6-6-6-6-6-6-6-6-6-6-6-6-6-6-6-6-6-6-6--
D|--6-6-6-6-6-6-6-6-6-6-6-6-6-6-6-6-6-6-6-6-6-6-6-6-6-6-6-6-6-6-6-6-6-6--
A|--4-4-4-4-4-4-4-4-4-4-4-4-4-4-4-4-4-4-4-4-4-4-4-4-4-4-4-4-4-4-4-4-4-4--
E|-----------------------------------------------------------------------
    . . . . . . . . . . . . . . . . . . . . . . . . . . . . . . . .


Outro: Both guitars
e|---------------------------|
B|---------------------------|
G|---------------------------|	x3
D|--6-6-6-6-6-6-6-6-6-6-6-6--|
A|--6-6-6-6-6-6-6-6-6-6-6-6--|
E|--4-4-4-4-4-4-4-4-4-4-4-4--|

e|-----------------------------------|
B|-----------------------------------|
G|-----------------------------------|	x5
D|--6-6-6-6-6-6-6-6-6-6-6-6-6-6-6-6--|
A|--6-6-6-6-6-6-6-6-6-6-6-6-6-6-6-6--|
E|--4-4-4-4-4-4-4-4-4-4-4-4-4-4-4-4--|





This is a great song and I hope this was a great tab for you. Please write
a comment or question if you would like to.


Enjoy,

"black guitarist"

Comments about this tab

RcKn'Rll247 - 2004-11-22

so far so good!!!


Christ's Rocker - 2004-11-25

This tab seems pretty sweet. One thing i've seen though, not major at all, the Ab played at the start that you have sixth fret D string, at the start is played an octave down, fourth fret E string. Awesome job on this though, can't wait to jam on it.


mmggppmgp - 2005-01-04

dude i love this tab i like the little guitar thingys it would be soooo cool to jam with it... thanks bro... oh yah thanks again for helpin find the like the hidden track its is soo cool... neways i better do my homework... cuz im might get in so much trouble... gettin side tracked by ur awesome tab... GOD BLESS


kikn4christ.... - 2005-01-11

Nice Job Dude, ya I noticed the octave thing too, no big deal though.
awesome Job!


guitargirl232 - 2005-06-10

hey... can anyone get me this tab with the lyrics on it...cause i can't keep up without the lyrics.lol. well thanks... God Bless
Nicole...


guitargirl232 - 2005-06-10

o please e-mail me it with the tabs at jesusluvsu525@comcast.net ... thanks sooo much!
nicole


Rock_4_God - 2006-02-14

hey, looks good. I'm gonna go try it out. thanks!


simmonds - 2006-04-23

black guitarists rock


future_rock* - 2007-04-04

First the tuning is "Eb, Ab, Db, Gb, Bb, Eb"

And

The intro goes like this:

e|----------------------------------------|
B|----------------------------------------|
G|----------------------------------------|
D|-----11-11-9-9-------------6-6-7--------| 1X
A|-0-0-----------4-4-5-5-7-7---------0-0--|
E|----------------------------------------|

e|----------------------------------------|
B|----------------------------------------|
G|----------------------------------------|
D|-----11-11-9-9-------------6-6-7-0-0----| 2X
A|---------------4-4-5-5-7-7--------------|
E|----------------------------------------|

e|----------------------------------------|
B|----------------------------------------|
G|----------------------------------------|
D|-----11-11-9-9-------------6-6-7--------| 1X
A|-----------------4-4-5-5-7-7------0-0---|
E|----------------------------------------|

e|----------------------------------------|
B|----------------------------------------|
G|----------------------------------------|
D|-----11-11-9-9-------------6-6-7--------| 1X
A|---------------4-4-5-5-7-7-------0-0----|
E|----------------------------------------|

e|----------------------------------------|
B|----------------------------------------|
G|----------------------------------------|
D|-----11-11-9-9-------------6-6-7-0-0----| 2X
A|---------------4-4-5-5-7-7--------------|
E|----------------------------------------|

e|----------------------------------------|
B|----------------------------------------|
G|------------------9-9-------------------|
D|--11-11-9-9-11-11-------11-11-9-9 11----| 1X
A|----------------------------------------|
E|----------------------------------------|


mxpxrocks777 - 2007-09-22

no its wrong because this song is in standard tuning and the intro goes like this!:

|-------------------------------|
|-------------------------------|
|-----5-5-3-3-------------------|
|-------------------------3-5-6-|
|-------------3-3-4-4-6-6-------|
|-4-4---------------------------|


|-------------------------------|
|-------------------------------|
|-----5-5-3-3-------------------|
|-------------------------3-5-6-|
|-------------3-3-4-4-6-6-------|
|-4-4---------------------------|

|-------------------------------|
|-------------------------------|
|-----5-5-3-3-------------------|
|-------------------------3-5-6-|
|-4-4---------3-3-4-4-6-6-------|
|-------------------------------|

|---------------------------------|
|-----------------4-4-------------|
|-----5-5-3-3-5-5-----5-5-3-3-5-5-|
|---------------------------------|
|-4-4-----------------------------|
|---------------------------------|





Add a comment/correction

Complimentary Christian Ringtones
Dadamobile and CGR have teamed up to bring your favorite Christian artists right to your phone. Sign up today and get 10 complementary ringtones!
Tab Country
Did you know CGR has a sister site w/ country guitar tabs? Well we do! Its called Tab Country. It has a great archive with a lot of country tabs.
Rockin Tabs
Are you looking for a site that has rock guitar tabs? Then Rockintabs.com is the place for you. It is a budding site with many rock guitar tabs. Submit your tab today.
Tab Gallery
Tab Gallery has a compilation of christian, rock, and country tabs all in one place. Come visit us.