Guitar Tabs
song title    band name

Join Us Today!

Don't strum alone...
be a part of the largest online Christian music community. Browse thousands of guitar tabs and chat w/ musicians like yourself.


It's Free!

This tab has been rated a 5.00 out of 5 for accuracy. (18 votes)Sorry, but you must be logged in to rate this tab.
Click here to log-in, or you can click here to register.
(Registration is free)

All songs owned by corresponding publishing company. If you make copies of any song on this website, be sure to report your usage to CCLI.
Submitted by: scheller

More Than Useless
Relient K
Album: MmmHmm
C 2004 Gotee Records

Transcribed by scheller
Check www.powertabs.net for a powertab of this and more or the Powertab 
Forum on this site: 
http://www.christianguitar.org/forums/forumdisplay.php?f=258

This is a comprehensive tab so it's going to be long and maybe a little 
complex for beginners.  The first two tabs already here are not complete 
and the third just had the intro (but it's correct).

All guitars tuned down 1/2 step: Eb Ab Db Gb Bb Eb\

 Intro
|-0-0-0-0-0-0-0-0-|-0-0-0-0-0-0-0-0-|-0-0-0-0-0-0-0-0-|-0-0-0-0-0-0-0-0--|
|-4-4-4-5-5-5-0-0-|-0-2-2-2-4-4-4-4-|-4-4-4-5-5-5-0-0-|-0-2-2-2-4-4-4-4--|
|-----------------|-----------------|-----------------|------------------|
|-----------------|-----------------|-----------------|------------------|
|-----------------|-----------------|-----------------|------------------|
|-----------------|-----------------|-----------------|------------------|

  C#5                 A5              E5
|-----------------|-----------------|-----------------|------------------|
|-----------------|-----------------|-----------------|------------------|
|-----------------|-----------------|-----------------|------------------|
|-6-6-6-6-----6---|-----------------|-----------------|------------------|
|-4-4-4-4-----4---|---7---7-7---7---|-2-2---2-2---2---|---2---2-2-2-2-2--|
|-----------------|---5---5-5---5---|-0-0---0-0---0---|---0---0-0-0-0-0--|
|
|-0-0-0-0-0-0-0-0-|-0-0-0-0-0-0-0-0-|-0-0-0-0-0-0-0-0-|-0-0-0-0-0-0-0-0--|
|-4-4-4-5-5-5-0-0-|-0-2-2-2-4-4-4-4-|-4-4-4-5-5-5-0-0-|-0-2-2-2-4-4-4-4--|
|-----------------|-----------------|-----------------|------------------|
|-----------------|-----------------|-----------------|------------------|
|-----------------|-----------------|-----------------|------------------|
|-----------------|-----------------|-----------------|------------------|

  C#5                        A5
|------------------------|---------------------|
|------------------------|---------------------|
|------------------------|---------------------|
|--6--6--6--6-------6----|---------------------|
|--4--4--4--4-------4----|----7----7--7----7---|
|------------------------|----5----5--5----5---|
|
|--0--0--0--0--0-0--0--0-|-0--0-0--0--0-0--0-0-|
|--4--4--4--5--5-5--0--0-|-0--2-2--2--4-4--4-4-|
|------------------------|---------------------|
|------------------------|---------------------|
|------------------------|---------------------|
|------------------------|---------------------|
|
|------------------------|---------------------|
|------------------------|---------------------|
|-11-11-11-13-13---11-11-|---14---14-13---11---|
|------------------------|---------------------|
|--9--9--9-11-11----9--9-|---12---12-11----9---|
|------------------------|---------------------|

  E5
|-----------------------|--------------------------||
|-----------------------|--------------------------||
|-----------------------|--------------------------||
|-----------------------|--------------------------||
|--2--2----2--2----2----|-----2-----2--2--2--2--2--||
|--0--0----0--0----0----|-----0-----0--0--0--0--0--||
|
|--0--0-0--0--0-0--0--0-|--0--0--0--0--0--0--0--0--||
|--4--4-4--5--5-5--0--0-|--0--2--2--2--4--4--4--4--||
|-----------------------|--------------------------||
|-----------------------|--------------------------||
|-----------------------|--------------------------||
|-----------------------|--------------------------||
|
|-----------------------|--------------------------||
|-----------------------|--------------------------||
|-13-13---13-13---13-13-|-13-13-13-13-13-13-13-13--||
|-----------------------|--------------------------||
|-11-11---11-11---11-11-|-11-11-11-11-11-11-11-11--||
|-----------------------|--------------------------||


 Verses
  E5                                 C#5               A5
|----------------|-----------------|-----------------|------------------|
|----------------|-----------------|-----------------|------------------|
|----------------|-----------------|-----------------|------------------|
|-9--9-9-9-9-9-9-|-9-9-9-9-9-9-9-9-|-6-6-6-6-6-6-6-6-|------------------|
|-7--7-7-7-7-7-7-|-7-7-7-7-7-7-7-7-|-4-4-4-4-4-4-4-4-|-7-7-7-7-7-7-7-7--|
|----------------|-----------------|-----------------|-5-5-5-5-5-5-5-5--|

  E5                                  C#5               A5
|-----------------|-----------------|-----------------|------------------||
|-----------------|-----------------|-----------------|------------------||
|-----------------|-----------------|-----------------|------------------||
|-9-9-9-9-9-9-9-9-|-9-9-9-9-9-9-9-9-|-6-6-6-6-6-6-6-6-|------------------||
|-7-7-7-7-7-7-7-7-|-7-7-7-7-7-7-7-7-|-4-4-4-4-4-4-4-4-|-7-7-7-7-7-7-7-7--||
|-----------------|-----------------|-----------------|-5-5-5-5-5-5-5-5--||


 Pre-Chorus
  E5                                C#5              A5     B5
|----------------|----------------|----------------|---------------------|
|----------------|----------------|----------------|---------------------|
|----------------|----------------|----------------|---------------------|
|----------------|----------------|-6-6--------6-6-|---------------------|
|-2-2--------2-2-|-2-2--------2-2-|-4-4--------4-4-|-7-7--7--9--9-----9--|
|-0-0--------0-0-|-0-0--------0-0-|----------------|-5-5--5--7--7-----7--|
|
|------0-0-0-0-0-|------0-0-0-0-0-|------0-0-0-0-0-|------0--0--0--0--0--|
|------5-5-5-5-5-|------5-5-5-5-5-|------5-5-5-5-5-|------5--5--5--5--5--|
|----------------|----------------|----------------|---------------------|
|----------------|----------------|----------------|---------------------|
|----------------|----------------|----------------|---------------------|
|----------------|----------------|----------------|---------------------|
|
|----------------|----------------|----------------|---------------------|
|----------------|----------------|----------------|---------------------|
|----------------|----------------|----------------|--------11-11-11-11--|
|----------------|----------------|----------------|---------------------|
|----------------|----------------|----------------|---------9--9--9--9--|
|----------------|----------------|----------------|---------------------|

                                                      
  E5                                C#5              A5     B5
|----------------|----------------|----------------|--------------------||
|----------------|----------------|----------------|--------------------||
|----------------|----------------|----------------|--------------------||
|----------------|----------------|-6-6--------6-6-|--------------------||
|-2-2--------2-2-|-2-2--------2-2-|-4-4--------4-4-|-7-7--7-9--9--------||
|-0-0--------0-0-|-0-0--------0-0-|----------------|-5-5--5-7--7--------||
|
|------0-0-0-0-0-|------0-0-0-0-0-|------0-0-0-0-0-|------0-0--0--0--0--||
|------5-5-5-5-5-|------5-5-5-5-5-|------5-5-5-5-5-|------5-5--5--5--5--||
|----------------|----------------|----------------|--------------------||
|----------------|----------------|----------------|--------------------||
|----------------|----------------|----------------|--------------------||
|----------------|----------------|----------------|--------------------||
|
|----------------|----------------|----------------|--------------------||
|----------------|----------------|----------------|--------------------||
|----------------|----------------|----------------|------9-9-11-11-11--||
|----------------|----------------|----------------|--------------------||
|----------------|----------------|----------------|------7-7--9--9--9--||
|----------------|----------------|----------------|--------------------||


   Interlude
    E                 B/D#              C#m               A5               2x
||------------------|-----------------|-----------------|------------------||
||o-----------------|-----------------|-----------------|-----------------o||
||------------------|-----------------|-----------------|------------------||
||--6-6-6-6-6-6-6-6-|-4-4-4-4-4-4-4-4-|-2-2-2-2-2-2-2-2-|-2-2-2-2-2-2-2-2--||
||o-7-7-7-7-7-7-7-7-|-6-6-6-6-6-6-6-6-|-4-4-4-4-4-4-4-4-|-0-0-0-0-0-0-0-0-o||
||------------------|-----------------|-----------------|------------------||

  G#/C                  C#5       B5
|---------------------|---------------------||
|---------------------|---------------------||
|-(5)--(5)--(5)--(5)--|-(6)--(6)--(4)--(4)--||
|--6----6----6----6---|--6----6----4----4---||
|--3----3----3----3---|--4----4----2----2---||
|---------------------|---------------------||


 Chorus 1
  E5                                A5
|---------------|-----------------|---------------|------------------|
|---------------|-----------------|---------------|------------------|
|---------------|-----------------|---------------|------------------|
|---------------|-----------------|-2-2--2-2-2--2-|-2----------------|
|-2-2--2-2-2--2-|-2---------------|-0-0--0-0-0--0-|-0----------------|
|-0-0--0-0-0--0-|-0---------------|---------------|------------------|
|
|---------------|-----------------|---------------|------------------|
|---------------|-----------------|---------------|------------------|
|---------------|---1-------------|---------------|---1--------------|
|---------------|-----4-1-1-2-2-2-|---------------|-----4-1-1-2-2-2--|
|---------------|-----------------|---------------|------------------|
|---------------|-----------------|---------------|------------------|


  C#5                               A5             Am
|---------------|-----------------|--------------|------||
|---------------|-----------------|--------------|-1----||
|---------------|-----------------|--------------|-2----||
|-6-6--6-6-6--6-|-6---------------|-2-2--2-2-2---|-2----||
|-4-4--4-4-4--4-|-4---------------|-0-0--0-0-0---|-0----||
|---------------|-----------------|--------------|------||
|
|---------------|-----------------|--------------|------||
|---------------|-----------------|--------------|------||
|---------------|---1-------------|--------------|------||
|---------------|-----4-1-1-2-2-2-|--------------|------||
|---------------|-----------------|--------------|------||
|---------------|-----------------|--------------|------||


 Post-Chorus
  C#5                 A5              E5
|-----------------|-----------------|-----------------|------------------|
|-----------------|-----------------|-----------------|------------------|
|-----------------|-----------------|-----------------|------------------|
|-6-6-6-6-----6---|---2---2-2---2---|-----------------|------------------|
|-4-4-4-4-----4---|---0---0-0---0---|-2-2---2-2---2---|---2---2-2-2-2-2--|
|-----------------|-----------------|-0-0---0-0---0---|---0---0-0-0-0-0--|
|
|-0-0-0-0-0-0-0-0-|-0-0-0-0-0-0-0-0-|-0-0-0-0-0-0-0-0-|-0-0-0-0-0-0-0-0--|
|-4-4-4-5-5-5-0-0-|-0-2-2-2-4-4-4-4-|-4-4-4-5-5-5-0-0-|-0-2-2-2-4-4-4-4--|
|-----------------|-----------------|-----------------|------------------|
|-----------------|-----------------|-----------------|------------------|
|-----------------|-----------------|-----------------|------------------|
|-----------------|-----------------|-----------------|------------------|

  C#5                      A5
|----------------------|----------------------||
|----------------------|----------------------||
|----------------------|----------------------||
|--6--6--6--6------6---|----2-----2--2----2---||
|--4--4--4--4------4---|----0-----0--0----0---||
|----------------------|----------------------||
|
|--0--0--0--0-0-0--0-0-|-0--0--0--0--0-0--0-0-||
|--4--4--4--5-5-5--0-0-|-0--2--2--2--4-4--4-4-||
|----------------------|----------------------||
|----------------------|----------------------||
|----------------------|----------------------||
|----------------------|----------------------||
|
| Gtr III
|----------------------|----------------------||
|----------------------|----------------------||
|-11-11-11-13-----11---|---11-11-11-13---11---||
|----------------------|----------------------||
|--9--9--9-11------9---|----9--9--9-11----9---||
|----------------------|----------------------||


[Play Verse and Pre-Chorus again and then...]

 Bridge (repeat 2x)
  &
  E               B/D#            C#m              A
|-----0-----0---|--------0------|--------0-------|-----------0-------|
|--------4------|-----4-----4---|-----2------2---|-------0-------0---|
|--4----------4-|--4----------4-|--4-----------4-|---2---------------|
|---------------|---------------|----------------|-------------------|
|---------------|---------------|----------------|-------------------|
|---------------|---------------|----------------|-------------------|
|
|---------------|---------------|----------------|---------<12>------|
|----12---------|----12---------|----12----------|-----<12>----<12>--|
|---------------|---------------|----------------|-------------------|
|-14----13-14---|-14----13-14---|-14----13-14----|-------------------|
|---------------|---------------|----------------|-<12>--------------|
|---------------|---------------|----------------|-------------------|
|
| (keys)
|-16------------|-14------------|-12-------------|-------------------|
|---------------|---------------|----------------|--12---------------|
|---------------|---------------|----------------|-------------------|
|-14------------|-13------------|-11-------------|-------------------|
|---------------|---------------|----------------|--12---------------|
|---------------|---------------|----------------|-------------------|


  G#/C                  C#5       B5
|---------------------|---------------------||
|---------------------|---------------------||
|-(5)--(5)--(5)--(5)--|-(6)--(6)--(4)--(4)--||
|--6----6----6----6---|--6----6----4----4---||
|--3----3----3----3---|--4----4----2----2---||
|---------------------|---------------------||


 Chorus 2
  E5                                A5
|---------------|-----------------|---------------|------------------|
|---------------|-----------------|---------------|------------------|
|---------------|-----------------|---------------|------------------|
|---------------|-----------------|-2-2--2-2-2--2-|-2----------------|
|-2-2--2-2-2--2-|-2---------------|-0-0--0-0-0--0-|-0----------------|
|-0-0--0-0-0--0-|-0---------------|---------------|------------------|
|
|---------------|-----------------|---------------|------------------|
|---------------|-----------------|---------------|------------------|
|---------------|---1-------------|---------------|---1--------------|
|---------------|-----4-1-1-2-2-2-|---------------|-----4-1-1-2-2-2--|
|---------------|-----------------|---------------|------------------|
|---------------|-----------------|---------------|------------------|


  C#5                               A5              Am
|---------------|-----------------|---------------|----------------|
|---------------|-----------------|---------------|-1-1--1-1-1-----|
|---------------|-----------------|---------------|-2-2--2-2-2--2--|
|-6-6--6-6-6--6-|-6---------------|-2-2--2-2-2--2-|-2-2--2-2-2--2--|
|-4-4--4-4-4--4-|-4---------------|-0-0--0-0-0--0-|-0-0--0-0-0--0--|
|---------------|-----------------|---------------|----------------|
|
|---------------|-----------------|---------------|----------------|
|---------------|-----------------|---------------|----------------|
|---------------|---1-------------|---------------|----------------|
|---------------|-----4-1-1-2-2-2-|---------------|----------------|
|---------------|-----------------|---------------|----------------|
|---------------|-----------------|---------------|----------------|


  E5                                   A5
|---------------|--------------------|---------------|---------------------|
|---------------|--------------------|---------------|---------------------|
|---------------|--------------------|---------------|---------------------|
|---------------|--------------------|-2-2--2-2-2--2-|-2-2--2--2--2-----2--|
|-2-2--2-2-2--2-|-2-2--2--2--2-----2-|-0-0--0-0-0--0-|-0-0--0--0--0-----0--|
|-0-0--0-0-0--0-|-0-0--0--0--0-----0-|---------------|---------------------|
|
|---------------|--------------------|---------------|---------------------|
|---------------|--------------------|---------------|---------------------|
|-9-9--9-9-9--9-|-9-9--9-11-11-13-13-|-9-9--9-9-9--9-|-9-9--9-11-11-13-13--|
|---------------|--------------------|---------------|---------------------|
|-7-7--7-7-7--7-|-7-7--7--9--9-11-11-|-7-7--7-7-7--7-|-7-7--7--9--9-11-11--|
|---------------|--------------------|---------------|---------------------|


  C#5                                  A5              Am
|---------------|--------------------|---------------|-0----||
|---------------|--------------------|---------------|-1----||
|---------------|--------------------|---------------|-2----||
|-6-6--6-6-6--6-|-6-6--6--6--6-----6-|-2-2--2-2-2--2-|-2----||
|-4-4--4-4-4--4-|-4-4--4--4--4-----4-|-0-0--0-0-0--0-|-0----||
|---------------|--------------------|---------------|------||
|
|---------------|--------------------|---------------|------||
|---------------|--------------------|---------------|------||
|-9-9--9-9-9--9-|-9-9--9-11-11-13-13-|-9-9--9-9-9--9-|-9----||
|---------------|--------------------|---------------|------||
|-7-7--7-7-7--7-|-7-7--7--9--9-11-11-|-7-7--7-7-7--7-|-7----||
|---------------|--------------------|---------------|------||


   Bridge 2
    E                                   C#m               A                2x
||--0-0-0-0-0-0-0-0-|-0-0-0-0-0-0-0-0-|-0-0-0-0-0-0-0-0-|-0-0-0-0-0-0-0-0--||
||o-4-4-4-5-5-5-0-0-|-0-2-2-2-4-4-4-4-|-4-4-4-5-5-5-0-0-|-0-2-2-2-4-4-4-4-o||
||------------------|-----------------|-----------------|------------------||
||------------------|-----------------|-----------------|------------------||
||o-----------------|-----------------|-----------------|-----------------o||
||------------------|-----------------|-----------------|------------------||
|
|   (keys)
||------------------|-----------------|-----------------|------------------||
||o-------7---9-----|-----------------|-----------------|-----------------o||
||--9---------------|-----------------|-6---------------|-2----------------||
||--9---------------|-----------------|-6---------------|-2----------------||
||o-7---7-----------|-----------------|-4---------------|-0---------------o||
||------------------|-----------------|-----------------|------------------||


 Breakdown
  A5                        C#5
|-------------------------|-------------------------|
|-------------------------|-------------------------|
|-------------------------|-------------------------|
|--2--2--2--2--2--2--2--2-|--6--6--6--6--6--6--6--6-|
|--0--0--0--0--0--0--0--0-|--4--4--4--4--4--4--4--4-|
|-------------------------|-------------------------|
|
|-------------------------|-------------------------|
|-------------------------|-------------------------|
|-13-13-13-13-13-13-13-13-|-13-13-13-13-13-13-13-13-|
|-------------------------|-------------------------|
|-11-11-11-11-11-11-11-11-|-11-11-11-11-11-11-11-11-|
|-------------------------|-------------------------|

  A5                        E5
|-------------------------|--------------------------|
|-------------------------|--------------------------|
|-------------------------|--------------------------|
|--2--2--2--2--2--2--2--2-|--------------------------|
|--0--0--0--0--0--0--0--0-|--2--2--2--2--2--2--2--2--|
|-------------------------|--0--0--0--0--0--0--0--0--|
|
|-------------------------|--------------------------|
|-------------------------|--------------------------|
|-13-13-13-13-13-13-13-13-|-13-13-13-13-13-13-13-13--|
|-------------------------|--------------------------|
|-11-11-11-11-11-11-11-11-|-11-11-11-11-11-11-11-11--|
|-------------------------|--------------------------|

  A5                        C#5
|-------------------------|-------------------------|
|-------------------------|-------------------------|
|-------------------------|-------------------------|
|--2--2--2--2--2--2--2--2-|--6--6--6--6--6--6--6--6-|
|--0--0--0--0--0--0--0--0-|--4--4--4--4--4--4--4--4-|
|-------------------------|-------------------------|
|
|-------------------------|-------------------------|
|-------------------------|-------------------------|
|-13-13-13-13-13-13-13-13-|-13-13-13-13-13-13-13-13-|
|-------------------------|-------------------------|
|-11-11-11-11-11-11-11-11-|-11-11-11-11-11-11-11-11-|
|-------------------------|-------------------------|

  E5                        B5
|-------------------------|--------------------------|
|-------------------------|--------------------------|
|-------------------------|--------------------------|
|-------------------------|--4--4--4--4--4--4--4--4--|
|--2--2--2--2--2--2--2--2-|--2--2--2--2--2--2--2--2--|
|--0--0--0--0--0--0--0--0-|--------------------------|
|
|-------------------------|--------------------------|
|-------------------------|--------------------------|
|-13-13-13-13-13-13-13-13-|-11-11-11-11-11-11-11-11--|
|-------------------------|--------------------------|
|-11-11-11-11-11-11-11-11-|--9--9--9--9--9--9--9--9--|
|-------------------------|--------------------------|

  A5               B5               C#5              B5
|----------------|----------------|----------------|-----------------|
|----------------|----------------|----------------|-----------------|
|----------------|----------------|----------------|-----------------|
|-2-2--------2-2-|-4-4--------4-4-|-6-6--------6-6-|--4-4------------|
|-0-0--------0-0-|-2-2--------2-2-|-4-4--------4-4-|--2-2------------|
|----------------|----------------|----------------|-----------------|
|
|----------------|----------------|----------------|-----------------|
|----------------|----------------|----------------|-----------------|
|-----9-8--9-9-9-|-----9-8--9-9-9-|-----9-8--9-9-9-|-11-9--8--9-9-9--|
|----------------|----------------|----------------|-----------------|
|-----7-6--7-7-7-|-----7-6--7-7-7-|-----7-6--7-7-7-|--9-7--6--7-7-7--|
|----------------|----------------|----------------|-----------------|

  A5                        B5
|-------------------------|-------------------------|
|-------------------------|-------------------------|
|-------------------------|-------------------------|
|--2--2--2--2--2--2--2--2-|--4--4--4--4--4--4--4--4-|
|--0--0--0--0--0--0--0--0-|--2--2--2--2--2--2--2--2-|
|-------------------------|-------------------------|
|
|-------------------------|-------------------------|
|-------------------------|-------------------------|
|-13-13-13-13-13-13-13-13-|-13-13-13-13-13-13-13-13-|
|-------------------------|-------------------------|
|-11-11-11-11-11-11-11-11-|-11-11-11-11-11-11-11-11-|
|-------------------------|-------------------------|

  C#5                       G#/C C#5B5
|-------------------------|--------------||
|-------------------------|--------------||
|-------------------------|--------------||
|--6--6--6--6--6--6--6--6-|-6-6--6--4----||
|--4--4--4--4--4--4--4--4-|-3-3--4--2----||
|-------------------------|--------------||
|
|-------------------------|--------------||
|-------------------------|--------------||
|-13-13-13-13-13-13-13-13-|--------------||
|-------------------------|--------------||
|-11-11-11-11-11-11-11-11-|--------------||
|-------------------------|--------------||


 Chorus 3
  E5                                A5
|---------------|-----------------|---------------|------------------|
|---------------|-----------------|---------------|------------------|
|---------------|-----------------|---------------|------------------|
|---------------|-----------------|-2-2--2-2-2--2-|-2-2---2-2-2---2--|
|-2-2--2-2-2--2-|-2-2---2-2-2---2-|-0-0--0-0-0--0-|-0-0---0-0-0---0--|
|-0-0--0-0-0--0-|-0-0---0-0-0---0-|---------------|------------------|
|
|---------------|-----------------|---------------|------------------|
|---------------|-----------------|---------------|------------------|
|---------------|---1-------------|---------------|---1--------------|
|---------------|-----4-1-1-2-2-2-|---------------|-----4-1-1-2-2-2--|
|---------------|-----------------|---------------|------------------|
|---------------|-----------------|---------------|------------------|

  C#5                               A5              Am
|---------------|-----------------|---------------|----------------|
|---------------|-----------------|---------------|-1-1--1-1-1-----|
|---------------|-----------------|---------------|-2-2--2-2-2--2--|
|-6-6--6-6-6--6-|-6-6---6-6-6---6-|-2-2--2-2-2--2-|-2-2--2-2-2--2--|
|-4-4--4-4-4--4-|-4-4---4-4-4---4-|-0-0--0-0-0--0-|-0-0--0-0-0--0--|
|---------------|-----------------|---------------|----------------|
|
|---------------|-----------------|---------------|----------------|
|---------------|-----------------|---------------|----------------|
|---------------|---1-------------|---------------|----------------|
|---------------|-----4-1-1-2-2-2-|---------------|----------------|
|---------------|-----------------|---------------|----------------|
|---------------|-----------------|---------------|----------------|

  E5                                   A5
|---------------|--------------------|---------------|---------------------|
|---------------|--------------------|---------------|---------------------|
|---------------|--------------------|---------------|---------------------|
|---------------|--------------------|-2-2--2-2-2--2-|-2-2--2--2--2-----2--|
|-2-2--2-2-2--2-|-2-2--2--2--2-----2-|-0-0--0-0-0--0-|-0-0--0--0--0-----0--|
|-0-0--0-0-0--0-|-0-0--0--0--0-----0-|---------------|---------------------|
|
|---------------|--------------------|---------------|---------------------|
|---------------|--------------------|---------------|---------------------|
|-9-9--9-9-9--9-|-9-9--9-11-11-13-13-|-9-9--9-9-9--9-|-9-9--9-11-11-13-13--|
|---------------|--------------------|---------------|---------------------|
|-7-7--7-7-7--7-|-7-7--7--9--9-11-11-|-7-7--7-7-7--7-|-7-7--7--9--9-11-11--|
|---------------|--------------------|---------------|---------------------|

  C#5                                 A5
|-----------------|-----------------|-----------------|------------------||
|-----------------|-----------------|-----------------|------------------||
|-----------------|-----------------|-----------------|------------------||
|-6-6-6-6-6-6-6-6-|-6-6-6-6-6-6-6-6-|-2-2-2-2-2-2-2-2-|-2-2-2-2-2-2-2-2--||
|-4-4-4-4-4-4-4-4-|-4-4-4-4-4-4-4-4-|-0-0-0-0-0-0-0-0-|-0-0-0-0-0-0-0-0--||
|-----------------|-----------------|-----------------|------------------||
|
|-----------------|-----------------|-----------------|------------------||
|-----------------|-----------------|-----------------|------------------||
|-9-9-9-9-9-9-9-9-|-9-9-9-9-9-9-9-9-|-9-9-9-9-9-9-9-9-|-9-9-9-9-9-9-9-9--||
|-----------------|-----------------|-----------------|------------------||
|-7-7-7-7-7-7-7-7-|-7-7-7-7-7-7-7-7-|-7-7-7-7-7-7-7-7-|-7-7-7-7-7-7-7-7--||
|-----------------|-----------------|-----------------|------------------||


 Outro
  E5                         A5
|------------|-------------|-----------------|------------------|
|------------|-------------|-----------------|------------------|
|------------|-------------|-2---------------|------------------|
|--2---------|-------------|-2---------------|------------------|
|--2---------|-------------|-0---------------|------------------|
|--0---------|-------------|-----------------|------------------|
|
|                   <
|                   TP
|------------|-------------|-0-0-0-0-0-0-0-0-|-0-0-0-0-0-0-0-0--|
|------------|-------------|-4-4-4-5-5-5-0-0-|-0-2-2-2-4-4-4-4--|
|-(9)--------|-(9)--9------|-----------------|------------------|
|------------|-------------|-----------------|------------------|
|-(7)--------|-(7)---------|-----------------|------------------|
|------------|-------------|-----------------|------------------|
                    *Tremolo Pick (probably just an effects pedal
                                   and not actually played)

    E5                                  A5                                 3x
||------------------|-----------------|-----------------|------------------||
||o-----------------|-----------------|-----------------|-----------------o||
||------------------|-----------------|-2---------------|------------------||
||--2---------------|-----------------|-2---------------|------------------||
||o-2---------------|-----------------|-0---------------|-----------------o||
||--0---------------|-----------------|-----------------|------------------||
|
||--0-0-0-0-0-0-0-0-|-0-0-0-0-0-0-0-0-|-0-0-0-0-0-0-0-0-|-0-0-0-0-0-0-0-0--||
||o-4-4-4-5-5-5-0-0-|-0-2-2-2-4-4-4-4-|-4-4-4-5-5-5-0-0-|-0-2-2-2-4-4-4-4-o||
||------------------|-----------------|-----------------|------------------||
||------------------|-----------------|-----------------|------------------||
||o-----------------|-----------------|-----------------|-----------------o||
||------------------|-----------------|-----------------|------------------||

  E5
|----------|------------|------------|--------*|
|----------|------------|------------|--------*|
|----------|------------|------------|--------*|
|-2--------|-(2)--------|-(2)--------|-(2)----*|
|-2--------|-(2)--------|-(2)--------|-(2)----*|
|-0--------|-(0)--------|-(0)--------|-(0)----*|
|
|-0--------|-(0)--------|-(0)--------|-(0)----*|
|-0--------|-(0)--------|-(0)--------|-(0)----*|
|----------|------------|------------|--------*|
|----------|------------|------------|--------*|
|----------|------------|------------|--------*|
|----------|------------|------------|--------*|


Generated using PowerTab Editor - Brad Larson - www.power-tab.net

Comments about this tab

surge88 - 2004-11-20

good job bro!!


cotton-I-joe07 - 2004-11-20

Wow! Nice!


RcKn'Rll247 - 2004-11-28

Ya know there is a much simpler way to do the intro, and the way you have it tabbed doesn't sound right to me!!! I know they tune half a step down and all and i did that, but it still doesn't sound right, no offense. My opinion is that he or they only use one string on the intro solo part...


scheller - 2004-12-04

It's possible they may play that riff on one string in the 2nd Bridge, but I'm pretty sure the high Eb string is ringing out in the intro. It's pretty simple, so I don't think it could be simpler. Thanks for the comments though and no offense taken. I need to update this tab, though, with some additions that another tabber sent me regarding my powertab of this song (which I recommend getting from www.powertabs.net). I should have it up soon.


Mmhmm - 2004-12-27

Man, the intro sounds perfect to me. Not to mention the fact that it is really simple. Good job, man.


mmggppmgp - 2005-01-05

wowzers!!!


sack - 2005-01-19

Yo.
The intro is perfect. The whole song is great. The chorus is a little bit off. I'll tab it in a little while, but both guitars play the chords and on the second chorus the guitars play seperate parts for the little tab in between the chords. Yeah. I'll tab it soon.

Will


RK_rules - 2005-02-10

Sweet tab man, I think that it sounds perfect, KEEP ON PLAYIN' FOR JESUS!


the_wet_mop - 2005-03-24

nice tab! the chords are a big help for those of us who know them. I also reccomed all you reilent k fans to buy the book for Two lefts dont make a right but three do. Thnx =D


arkmaster07 - 2005-04-17

this song is actually in normal drop D, and they are 5 diad power chords not 4th. this would be a B5 chord
|--4---| 4th finger
|--4---| 3rd finger
|--2---| 1st finger
the only diference this makes is the tone is a little lighter and fuller. most rock uses these now, except for the old style bands, and the heay ones, they like leaving the extra higher note out, it makes it sound darker and heavier.


FMstaticfreak - 2005-05-18

Dude....saweet job! I can't wait to play it!


FMstaticfreak - 2005-05-18

at first i tried the intro and it sounded way off or it was wrong key or some thing...but then i just spent a bunch of time tuning my guitar and now it sounds awesome !


Rockin Cruzader - 2005-06-06

WOW!! nice job, best tabs i've found for this song!! i'd say its perfect.


Nath - 2005-06-21

Yeah, Nice Tab!
Intro seems fine, I can hear that open Eb there, but it took a wee bit of listening :)


one_way146 - 2005-07-09

PERFECT!!!


rkfan4 - 2005-07-15

i was jsut wondering if anyone knows how to play this in standard tuning ...because i dont know how to tune to Eb..if anyone could help email or IM me at doggyvet104@aol.com thnx!


rkfan4 - 2005-07-15

i was jsut wondering if anyone knows how to play this in standard tuning ...because i dont know how to tune to Eb..if anyone could help email thnx!


pearin - 2005-07-17

rk fan....to tune to Eb....u just tune ur guitar down half a step with ur tuner...to Eb...and if you wanna play standard tuning....u move all notes one fret higher...ex. 000133 becomes 000244...


pearin - 2005-07-17

my bad rk fan...if you wanna play standard tuning, you move ur frets one lower. so....000244 becomes 000133..sorry


rkfan4 - 2005-07-19

thnx ill try that


Jimbo12 - 2005-07-22

Just one question, why is it that in the intro the Ab5 chord is played 57XXXX and in the interlude between the chorus and the verse its X02XXX? Incredible tab, by the way! I give it a 10.


pearin - 2005-07-24

THIS IS THE BEST TAB I"VE EVER SEEN....I JUST HATE WHEN ALL THE OTHER TABS ARE WRONG!!!!! YOU"RE THE BEST DUDE! GOD BLESS!


dizzydaisy - 2005-08-06

i'm just learning the gutar so could someone put that in paino thx it would help


jakesnake - 2006-02-07

nice tab man. i love this song. you rock


relientk500 - 2006-02-14

yo, i'm am new at the guitar and this song is so easy to understand the way you wrote it. it is perfect


mcmadmiller - 2006-04-23

mint tab...nothin wrong about it...shame i cnt play some of it...awesome song...keep up the good work!!!


stratman3001 - 2006-05-29

Your tab is AWESOME! I believe you owe part to Power Tab Editor, the best editor in the whole entire universe.


jkim519 - 2006-08-15

Yo this tab is indubitably well tabbed. I got one question though...are the 2 or 3 different lines different guitars? or are they just all one riff?


Guitar-Hero - 2007-01-08

Dude i am a "Little More Than Usless"


Guitar-Hero - 2007-01-08

i got to do a sole at a thing i didnt even want to but the other people made me do it cause of how good i am


Guitar-Hero - 2007-01-08

WHO LOVES RELIENT K!




me


5isakoolnumber - 2007-01-14

MEE 2


Add a comment/correction

Complimentary Christian Ringtones
Dadamobile and CGR have teamed up to bring your favorite Christian artists right to your phone. Sign up today and get 10 complementary ringtones!
Tab Country
Did you know CGR has a sister site w/ country guitar tabs? Well we do! Its called Tab Country. It has a great archive with a lot of country tabs.
Rockin Tabs
Are you looking for a site that has rock guitar tabs? Then Rockintabs.com is the place for you. It is a budding site with many rock guitar tabs. Submit your tab today.
Tab Gallery
Tab Gallery has a compilation of christian, rock, and country tabs all in one place. Come visit us.