Guitar Tabs
song title    band name

Join Us Today!

Don't strum alone...
be a part of the largest online Christian music community. Browse thousands of guitar tabs and chat w/ musicians like yourself.


It's Free!

This tab has been rated a 5.00 out of 5 for accuracy. (1 vote)Sorry, but you must be logged in to rate this tab.
Click here to log-in, or you can click here to register.
(Registration is free)

All songs owned by corresponding publishing company. If you make copies of any song on this website, be sure to report your usage to CCLI.
Submitted by: WingedCousin

Artist:    Switchfoot
Song:      The Loser
Album:     Learning to Breath


Tabbed by WingedCousin

One of my favorite songs; it's in standard tuning (eBGDAE)
                          b stands for bend

Intro:  The slides from 11-0 to 9-7 could be left out and it sounds just as
        good to me.

 3x

e--------------------------------------
B--------------------------------------
G-----13/14/13-------------------------
D--------------------------------------
A-11-----------11/9-9---6-6-6-6-6-6-6--
E--0------------0/7-7---4-4-4-4-4-4-4--


Verse: tricky

e--------------------------------------------------------------
B-------5b-------7b-----9b----2b-------5b----7b------4b--------
G-------6b-------8b-----9b----2b-------6b----8b------5b--------
D-------6b-------9b-----9b----4b-------7b----9b------6b--------
A--4-4---------------7--------4b------------------------0-2-3--
E-------------7-------------2--------5-----7-----4-4-----------

e---------------------------------------------------------------
B-------5b-------7b-----9b----2b-------5b----7b------4b-----5b--
G-------6b-------8b-----9b----2b-------6b----8b------5b-----6b--
D-------6b-------9b-----9b----4b-------7b----9b------6b-----7b--
A--4-4---------------7--------4b--------------------------------
E-------------7-------------2--------5-----7-----4-4-----5------

e------------------------------------
B------------------------------------
G------------------------------------
A------------------------------------
D---9-9-9-9-7-7-7-7-9-9-9-9-7-7-7-7--
E---7-7-7-7-5-5-5-5-7-7-7-7-5-5-5-5--


Chorus:

e-------------------------------------------
B---------------------------9/10/9----------
G-----13/14/13------------------------------
D-------------------------------------------
A-11-----------11/9-9---11----------11/7-7--
E--0------------0/7-7----9-----------9/5-5--  2x

on final time end with

e---------------------------------------------------------------
B---------------------------------------------------------------
G---------------------------------------------------------------
D---------------------------------------------------------------
A--7-7-7-7-9-9-9-9-11-11-11-11-7-7-7-7-5-5-5-5-7-7-7-7-11--2-3--
E--5-5-5-5-7-7-7-7--9--9--9--9-5-5-5-5-3-3-3-3-9-9-9-9--0-------

Verse again

Chorus again

after the chorus this time add this to it after a few seconds.

e------------------------------------
B--8-8-8--12--12-12----12----12------
G--9-9-9------14-14-14----14----16b--
D------------------------------------
A------------------------------------
E------------------------------------ 

There is no guitar after this for a while but when it comes back it is this


e-----------------------------------
B-----------------------------------
G-----------------------------------
D-----------------------------------
A--9-9-9-9-7-7-7-7-9-9-9-9-7-6-7-6--
E--7-7-7-7-5-5-5-5-7-7-7-7-5-4-5-4--

e----------------------------------

B-----------------9/10/9-----------
G----------------------------------
D----------------------------------
A-11-11-11---11-11--------9-9-9-9--
E--0--0--0----9--9--------7-7-7-7--

e---------------------------------------------
B------------------------------9/10/9---------
G-----13/14/13--------------------------------
D---------------------------------------------
A-11------------9-9-9----11-11---------9-9-9--
E--0------------7-7-7-----9--9---------7-7-7--

e--------------------------------------------------------------
B--------------------------------------------------------------
G--------------------------------------------------------------
D--------------------------------------------------------------
A--7-7-7-7-9-9-9-9-7-7-7-7-9-9-9-9-7-7-7-7-9-9-9-9-11-6-6-6-6--
E--5-5-5-5-7-7-7-7-5-5-5-5-7-7-7-7-5-5-5-5-7-7-7-7--9-4-4-4-4--

e-----------------------------------
B-----------------------------------
G-----------------------------------
D--7-7-9-9-----------------7-7-9-9--
A--7-7-9-9-11-11-5-5-5-5-5-7-7-9-9--
E--5-5-7-7--9--9-3-3-3-3-3-5-5-7-7--

I think that is it, but comment me if you see anything that might be wrong.
Thanks for the Great Site.  God Bless!
                                          -WingedCousin

Comments about this tab

WingedCousin - 2004-11-20

sorry, i must have deleted the intro on accident here it is

e-------------------------------------------
B---------------------------9/10/9----------
G-----13/14/13------------------------------
D-------------------------------------------
A-11-----------11/9-9---11----------11/7-7--
E--0------------0/7-7----9-----------9/5-5-- 3x


Add a comment/correction

Complimentary Christian Ringtones
Dadamobile and CGR have teamed up to bring your favorite Christian artists right to your phone. Sign up today and get 10 complementary ringtones!
Tab Country
Did you know CGR has a sister site w/ country guitar tabs? Well we do! Its called Tab Country. It has a great archive with a lot of country tabs.
Rockin Tabs
Are you looking for a site that has rock guitar tabs? Then Rockintabs.com is the place for you. It is a budding site with many rock guitar tabs. Submit your tab today.
Tab Gallery
Tab Gallery has a compilation of christian, rock, and country tabs all in one place. Come visit us.