Guitar Tabs
song title    band name

Join Us Today!

Don't strum alone...
be a part of the largest online Christian music community. Browse thousands of guitar tabs and chat w/ musicians like yourself.


It's Free!

This tab has been rated a 3.67 out of 5 for accuracy. (3 votes)Sorry, but you must be logged in to rate this tab.
Click here to log-in, or you can click here to register.
(Registration is free)

All songs owned by corresponding publishing company. If you make copies of any song on this website, be sure to report your usage to CCLI.
Submitted by: DrawinBlckLines

I am submitting this song because all of the versions on the list or off a little, so i cleaned it up and it sounds exactly what they would play, but ya, i still would recommend going out and getting the song book in fall

Pillar
Bring Me Down
Drop C
Most of the versions have the intro and bridge correct, but here is the verse
X=palmute and r=play the note without palmuting

D------------------------------------------------------
A-------------------------------------------------------
F-------------------------------------------------------
C-666-66--555-55--55--8888-------8---------6--6p5-5-3-------
G----------------------------666----6---44--------------------
C-----------------------------------------------------------
  xxx     xxx     xx         xxx r  r   xx r  rrr x r                    

D------------------------------------------------------
A-------------------------------------------------------
F-------------------------------------------------------
C-666-66--555-55--55-8888--------8---------6--6p5-8p6-------
G----------------------------666----6---44--------------------
C-----------------------------------------------------------
  xxx     xxx     xx         xxx r  r   xx r  rrr rrr  

Thats it peace out!<>< 

Comments about this tab

Dani_Boy - 2006-04-17

This does not look really correct, sorry. I don't have my guitar tuned in drop C right now (I'm too lazy to tune down) but I've been playing parts of it before and your tab does not look really good to me. I don't think it's really bad either, but it's just not right. I don't mean to discourage you, rawk on!


Add a comment/correction

Complimentary Christian Ringtones
Dadamobile and CGR have teamed up to bring your favorite Christian artists right to your phone. Sign up today and get 10 complementary ringtones!
Tab Country
Did you know CGR has a sister site w/ country guitar tabs? Well we do! Its called Tab Country. It has a great archive with a lot of country tabs.
Rockin Tabs
Are you looking for a site that has rock guitar tabs? Then Rockintabs.com is the place for you. It is a budding site with many rock guitar tabs. Submit your tab today.
Tab Gallery
Tab Gallery has a compilation of christian, rock, and country tabs all in one place. Come visit us.