Guitar Tabs
song title    band name

Join Us Today!

Don't strum alone...
be a part of the largest online Christian music community. Browse thousands of guitar tabs and chat w/ musicians like yourself.


It's Free!

This tab has been rated a 4.00 out of 5 for accuracy. (7 votes)Sorry, but you must be logged in to rate this tab.
Click here to log-in, or you can click here to register.
(Registration is free)

All songs owned by corresponding publishing company. If you make copies of any song on this website, be sure to report your usage to CCLI.
Submitted by: jo_cloud_31

Relient K
MmHmm
"Maintain Consciousness" Solo

This is only my second tab, so I hope it works out ok.

Played just before "no one can possibly..."

eb|------------------------------------------------------------|
Bb|------------------------------------------------------------|
Gb|------------------------------------------------------------|
Db|-------0-2-------0-2-------0-2-------0-2-------0-2-------0-2|
Ab|0--0-3----0--0-3---------3---------3---------3---------3----|
Eb|--------------------2--2------2--2------1--1------1--1------|

eb|------------------------------------------------------------|
Bb|------------------------------------------------------------|
Gb|----0-0-0----454-4-2-4-0------------------------------------|
Db|-------------------------(2)--------------------------------|
Ab|3--3--------------------------------------------------------|
Eb|------------------------------------------------------------|

Comments about this tab

jo_cloud_31 - 2004-11-20

Hey all, I hope this is a good tab, If you can, please add a comment as I could really use the feedback. I've never done this before and I don't know if I'm even close to tabbing right. I'm pretty sure the music itself is good, but the tabbing is beyond me. thanks ahead of time!


sack - 2004-11-20

Preettyy Gooood.
Especially for your second time tabbing!
However...
Eb----------------------------|
Bb----------------------------|
Gb-5-4-2--4p2--0h2------------|
Db----------------------------|
Ab----------------------------|
Eb----------------------------|
Just the last little line was off. Above is the first time
and below is the second ending...
Eb----------------|
Bb----------------|
Gb-555555-5b7-----|
Db----------------|
Ab----------------|
Eb----------------|
Nice tab. Keep up the good work.
WIll(not really sack)


jo_cloud_31 - 2004-11-22

thanks... that helps to hear that it's at least decent... :) I'll keep trying


RKjunkie - 2004-11-25

Oh my goodness!!! i am soo excited to have found a website that has awesome RK tabs...i mean ultimate guitar is good, but this is soo cool! ever since i got mmhmm ive wanted to play this solo...keep up the good work!


whatiscool? - 2004-12-29

dude, nice tab, but it is a bummer that the whole song isnt up. can someone get on that? i stink at tabbing.


JonJo - 2005-01-07

Nice tab dude


dschu - 2005-02-12

The first ending plays like so:
x--|---------------|
x--|---------------|
gb-|4brp2--4p2p0---|
db-|-------------2-|
x--|---------------
x--|---------------|


4of5Rocker - 2006-05-10

what's with the () around the 2 at the very end?


6strings21frets - 2007-02-24

Whoa, you rock dude!


chrisangelo112 - 2008-03-22

This solo sounds awesome. Great job!


6strings21frets - 2008-04-07

can you please explain how to do that bend at the end of the solo?

thanks


Add a comment/correction

Complimentary Christian Ringtones
Dadamobile and CGR have teamed up to bring your favorite Christian artists right to your phone. Sign up today and get 10 complementary ringtones!
Tab Country
Did you know CGR has a sister site w/ country guitar tabs? Well we do! Its called Tab Country. It has a great archive with a lot of country tabs.
Rockin Tabs
Are you looking for a site that has rock guitar tabs? Then Rockintabs.com is the place for you. It is a budding site with many rock guitar tabs. Submit your tab today.
Tab Gallery
Tab Gallery has a compilation of christian, rock, and country tabs all in one place. Come visit us.