Guitar Tabs
song title    band name

Join Us Today!

Don't strum alone...
be a part of the largest online Christian music community. Browse thousands of guitar tabs and chat w/ musicians like yourself.


It's Free!

This tab has been rated a 4.00 out of 5 for accuracy. (3 votes)Sorry, but you must be logged in to rate this tab.
Click here to log-in, or you can click here to register.
(Registration is free)

All songs owned by corresponding publishing company. If you make copies of any song on this website, be sure to report your usage to CCLI.
Submitted by: jo_cloud_31

Relient K
MmHmm
"This Week The Trend"

Sorry if this really sucks, it's my first attempt at a guitar tab. It should 
be right musically, though. I've played it with the recording many times.

Intro
Riff 1
eb |-----------------------------------------------|
Bb |--------2--2--0--0-----------------------------|
Gb |------------------------------------1--1--2----|
Db |-------------------------0--0--2--2------------|
Ab |-------------------4--4------------------------|
Eb |0----0-----------------------------------------|

Riff 2
eb |-----------------------------------------------|
Bb |--------2--2--0--0-----------------------------|
Gb |-------------------------------------1--1--2---| X2
Db |--------------------------0--0--2--2-----------|
Ab |0----0--------------4--4-----------------------|
Eb |-----------------------------------------------|

Riff 3
eb |-----------------------------------------------|
Bb |--------2--2--0--0--2--2--5--5--2--2--0--0--2--|
Gb |-----------------------------------------------|
Db |-----------------------------------------------|
Ab |0----0-----------------------------------------|
Eb |-----------------------------------------------|

PROGRESSION:
Riff 1 2X
Riff 2 2X
Riff 1 2X
Riff 2 1X
Riff 3 1X

Comments about this tab

jo_cloud_31 - 2004-11-20

After the tab on riff 2, ignore the 2X part, I thought I got rid of that...

any way... please comment on this/correct me as I am a first-timer and have no clue what I'm doing... I can't even play that well, just kinda guessed and played it slower. again... please comment! I appreciate it!


wet mop - 2005-02-01

this sound really good thnx......any one know the chords to this song???


chan3 - 2006-06-26

I really enjoyed this tab, it was the easiest tab to read (usually tabs are extremely hard for me to read)

Thanks


Add a comment/correction

Complimentary Christian Ringtones
Dadamobile and CGR have teamed up to bring your favorite Christian artists right to your phone. Sign up today and get 10 complementary ringtones!
Tab Country
Did you know CGR has a sister site w/ country guitar tabs? Well we do! Its called Tab Country. It has a great archive with a lot of country tabs.
Rockin Tabs
Are you looking for a site that has rock guitar tabs? Then Rockintabs.com is the place for you. It is a budding site with many rock guitar tabs. Submit your tab today.
Tab Gallery
Tab Gallery has a compilation of christian, rock, and country tabs all in one place. Come visit us.