Guitar Tabs
song title    band name

Join Us Today!

Don't strum alone...
be a part of the largest online Christian music community. Browse thousands of guitar tabs and chat w/ musicians like yourself.


It's Free!

Ghoti Hook - Hey Nonny Nonny

This tab has not yet been rated for accuracy.Sorry, but you must be logged in to rate this tab.
Click here to log-in, or you can click here to register.
(Registration is free)

All songs owned by corresponding publishing company. If you make copies of any song on this website, be sure to report your usage to CCLI.
+------------------------------------------+
\  Artist     :  Ghoti Hook                 \
/  Song       :  Hey Nonny Nonny            /
\  Instrument :  Guitar                     \
/  Tabbed by  :  Mike!    /
\___________________________________________\

  +---+---+---+---+
  | Bb| F | C | F*|
  +---+---+---+---+
e-| - | - | - | - |
B-| - | - | - | - |
G-| 3 | - | 5 | 10|
D-| 3 | 3 | 5 | 10|
A-| 1 | 3 | 3 | 8 |
E-| - | 1 | - | - |
  +---+---+---+---+

e-|-------------------------|        |----|
B-|-------------11-11-11-11-| \      |-10-|
G-|-10-10-10-10-10-10-10-10-|  \  x3 |-9--|
D-|-10-10-10-10-8--8--8--8--|  /     |-7--|
A-|-8--8--8--8--8--8--8--8--| /      |-7--|
E-|-8--8--8--8--------------|        |----|
Beauty sat bathing by a spring where fairest shades did hide her 
the winds blew calm the birds did sing the cool streams ran beside her 
my wanton thoughts enticed mine eye to see what was forbidden 
    Bb F  Bb F Bb F     C       Bb              C
but better memory said "fie" so vain desire was chidden 

F                  Bb
hey nonny nonny oh hey nonny nonny
Bb                 F
hey nonny nonny oh hey nonny nonnie 
F                  Bb
hey nonny nonny oh hey nonny nonny
Bb                 F
hey nonny nonny oh hey nonny nonnie 

F                               Bb
into a slumber then I fell when fond imagination 
F                                    Bb
seemed to see but could not tell her feature or her fashion 
F                                        Bb               C
but even as babes in dreams do smile and sometimes fall a weeping
  Bb F Bb   F  Bb   F    C        Bb            C
so I awaked as wise this while as when I fell a-sleeping 

F                  Bb
hey nonny nonny oh hey nonny nonny
Bb                 F
hey nonny nonny oh hey nonny nonnie 
F                  Bb
hey nonny nonny oh hey nonny nonny
Bb                 F
hey nonny nonny oh hey nonny nonnie 

e-|-------|
B-|-------|
G-|-------|
D-|-3-----|
A-|---3-5-|
E-|-------|
say man are you down for doing something positive in the community? 
no not really
well ain't you worried about doing the right thing?
well I don't care

F
Beauty sat bathing by a spring where fairest shades did hide her 
F
the winds blew calm the birds did sing the cool streams ran beside her 
F                                      Bb              C
my wanton thoughts enticed mine eye to see what was forbidden 
    Bb F  Bb F Bb F     C       Bb              C
but better memory said "fie" so vain desire was chidden 

F                  Bb
hey nonny nonny oh hey nonny nonny
Bb                 F
hey nonny nonny oh hey nonny nonnie 
F                  Bb
hey nonny nonny oh hey nonny nonny
Bb                 F                 F*
hey nonny nonny oh hey nonny nonnie 
hey nonny nonny oh hey nonny nonny
hey nonny nonny oh hey nonny nonnie 
hey nonny nonny oh hey nonny nonny
hey nonny nonny oh hey nonny nonnie 


Outro:
Guitar 1:
e-|----4---4------8--8------13--13--------------20-18-13-|
B-|-6----6---6--4------11-9--------16-13-16--13----------|
G-|------------------------------------------------------|
D-|------------------------------------------------------|
A-|------------------------------------------------------|
E-|------------------------------------------------------|

e-|-13-13-----------------------------------------------------------------|
B-|-------16-13-13--------------------------------11-11-11-10-11-11-11-10-|
G-|----------------15-13-15-13--------------------------------------------|
D-|----------------------------15-15-13-----------------------------------|
A-|-------------------------------------15-11-13--------------------------|
E-|-----------------------------------------------------------------------|

e-|----------------------------------------------------------------|
B-|-13-------13-------13-------13-------13-------13-------13-------|
G-|----13-15----13-15----13-15----13-15----13-15----13-15----13-15-|
D-|----------------------------------------------------------------|
A-|----------------------------------------------------------------|
E-|----------------------------------------------------------------|

e-|-13-15-16-18-20-20-20-20-18-13--------------13----13----|
B-|-------------------------------13^-13\11-------16-------|
G-|-----------------------------------------13----------10-|
D-|--------------------------------------------------------|
A-|--------------------------------------------------------|
E-|--------------------------------------------------------|

e-|-------------------------------------------------------|
B-|---9-------------11-------------11-------------11-9----|
G-|-8---10-10-10-10----10-10-10-10----10-10-10-10------10-|
D-|-------------------------------------------------------|
A-|-------------------------------------------------------|
E-|-------------------------------------------------------|

Guitar 2: F*    (Bb F) repeat

Comments about this tab

No comments/corrections found. Add your own

Complimentary Christian Ringtones
Dadamobile and CGR have teamed up to bring your favorite Christian artists right to your phone. Sign up today and get 10 complementary ringtones!
Tab Country
Did you know CGR has a sister site w/ country guitar tabs? Well we do! Its called Tab Country. It has a great archive with a lot of country tabs.
Rockin Tabs
Are you looking for a site that has rock guitar tabs? Then Rockintabs.com is the place for you. It is a budding site with many rock guitar tabs. Submit your tab today.
Tab Gallery
Tab Gallery has a compilation of christian, rock, and country tabs all in one place. Come visit us.