Guitar Tabs
song title    band name

Join Us Today!

Don't strum alone...
be a part of the largest online Christian music community. Browse thousands of guitar tabs and chat w/ musicians like yourself.


It's Free!

This tab has been rated a 3.50 out of 5 for accuracy. (4 votes)Sorry, but you must be logged in to rate this tab.
Click here to log-in, or you can click here to register.
(Registration is free)

All songs owned by corresponding publishing company. If you make copies of any song on this website, be sure to report your usage to CCLI.
Submitted by: jaytfkfan

Thousand Foot Krutch 
Bounce

Tuning:DADGBE

Intro:(low-fi)(*=palm muted):(normal)

E----------------------------------------------------------------------------
B----------------------------------------------------------------------------
G----------------------------------------------------------------------------
D--2--5-4--4/5-0--2--5-4--*4-*4-4/5-4/5--2--5-4--4/5-0--2--5-4-*4-*4-4/5-4/5-
A--2--5-4--4/5-0--2--5-4--*4-*4-4/5-4/5--2--5-4--4/5-0--2--5-4-*4-*4-4/5-4/5-
D--2--5-4--4/5-0--2--5-4--*4-*4-4/5-4/5--2--5-4--4/5-0--2--5-4-*4-*4-4/5-4/5-

E--------------------------------------------
B--------------------------------------------
G--------------------------------------------
D--2--5-4--4/5-0-7-7-7-7-7-7-7-7-7-9-9-9-9-5-
A--2--5-4--4/5-0-7-7-7-7-7-7-7-7-7-9-9-9-9-5-
D--2--5-4--4/5-0-7-7-7-7-7-7-7-7-7-9-9-9-9-5-

Verse:
Don't play for a little bit
Until 0:31

E----------0-0-0-0-0-0-0-0-0-0-0-------------------------------
B--8-8-8-8-8-*-*-*-*-*-*-*-*-*-*-*-7-7-7-7-7-7-7-7-7-7-7-7-7-7-
G--9-9-9-9-9-7-7-7-7-7-7-7-7-7-7-7-7-7-7-7-7-7-7-7-7-7-7-7-7-7-
D--------------------------------------------------------------
A--------------------------------------------------------------
D--------------------------------------------------------------

E--------------------------------------------------------------
B--7-8-8-8-8-8-8-8-8-8-10-10-10-10-10-10-10-8-8-8-8-8-8-8------
G--9-9-9-9-9-9-9-9-9-9-9--9--9--9--9--9--9--9-9-9-9-9-9--------
D--------------------------------------------------------------
A--------------------------------------------------------------
D--------------------------------------------------------------

Chorus: X(2)

E---------------------------------------------------------------------------
B---------------------------------------------------------------------------
G---------------------------------------------------------------------------
D-2--5-4--4/5-0--2--5-4-*-*4/5-4/5--2-5-4-4/5-0-7-7-7-7-7-7-7-7-7-9-9-9-9-5-
A-2--5-4--4/5-0--2--5-4-*-*4/5-4/5--2-5-4-4/5-0-7-7-7-7-7-7-7-7-7-9-9-9-9-5-
D-2--5-4--4/5-0--2--5-4-*-*4/5-4/5--2-5-4-4/5-0-7-7-7-7-7-7-7-7-7-9-9-9-9-5-

Verse(play at 1:09)

Chorus X(2)
Chorus continues second time and ends like so:

E--------
B--0-----
G--------
D--0-2-4-
A--0-2-4-
D--0-2-4-

I haven't had the time to figure out the rest sorry

P.S. Have fun




Comments about this tab

boby fanksmith - 2004-12-23

i rated this song low because i have never heard it befor
I gave it a 0.00 and it dropped to two
Have fun playing songs i dont care about
(Relient K sucks)
(not)
(i just dont know the song)
(My cousin is fat)
I like random... tree leafs


boby fanksmith - 2004-12-23

i heard the song :(
it was beautiful!!!
I am so sorry :(
I cant rate again!!!
I give people a bad name!!!
I still live in Strongbadia!!!
I like M---n P---r!!
I'm really J-------n!!!


Dani_Boy - 2006-04-17

Strangest comments I've ever heard right above me. Considering it's the only tab you've submitted I think it's pretty good, but otherwise it's quite off at a lot of places. Hope you can submit more tabs in the future, and I certainly don't mean to discourage you or anything. It's not at all near perfect, but I think it's very good for a first tab! Rawk on!


ChurchPunk911 - 2006-04-22

Dude boby dont be disin RK man! They rck. But oh yeah, bout the tab. its cool. :)


Add a comment/correction

Complimentary Christian Ringtones
Dadamobile and CGR have teamed up to bring your favorite Christian artists right to your phone. Sign up today and get 10 complementary ringtones!
Tab Country
Did you know CGR has a sister site w/ country guitar tabs? Well we do! Its called Tab Country. It has a great archive with a lot of country tabs.
Rockin Tabs
Are you looking for a site that has rock guitar tabs? Then Rockintabs.com is the place for you. It is a budding site with many rock guitar tabs. Submit your tab today.
Tab Gallery
Tab Gallery has a compilation of christian, rock, and country tabs all in one place. Come visit us.