Guitar Tabs
song title    band name

Join Us Today!

Don't strum alone...
be a part of the largest online Christian music community. Browse thousands of guitar tabs and chat w/ musicians like yourself.


It's Free!

This tab has been rated a 5.00 out of 5 for accuracy. (4 votes)Sorry, but you must be logged in to rate this tab.
Click here to log-in, or you can click here to register.
(Registration is free)

All songs owned by corresponding publishing company. If you make copies of any song on this website, be sure to report your usage to CCLI.
Submitted by: JasonD

Artist: Downhere
Song: What It's Like
Album Title: So Much for Subtitles
Year: 2003
Website: www.downhere.com
Tabbed by: Jason Dearing - jaseydee@hotmail.com

I just started listening to this band and they are awesome, but I noticed no 
body actually has the full song, so here it is! Questions, comments, email me!


INTRO/VERSES

e|-----------------------------
B|-----------------------------
G|----9--------11--------------
D|-7--9--9--9--11--11--11--11--
A|-7--7--9--9--9---11--11--11--
E|-5-----7--7------9---9---9---


PRE-CHORUS

e|-----------------
B|-----------------
G|-7------------7--
D|-7--7--9--11--7--
A|-5--7--9--11--5--
E|----5--7--9------


CHORUS
		 
e|-------------*--------------
B|-------------*--------------
G|-------6--4--*--------6--7--
D|-7--4--6--4--*--7--4--6--7--
A|-7--4--4--2--*--7--4--4--5--
E|-5--2--------*--5--2--------

*(Second Part of chorus which leads into the INTRO/VERSE)


And that's pretty much the whole song, just figure out when and where to play 
each riff and your set to be playing with the band :P (Other then the solo in 
this song which I have no clue how to transcribe!)

This is my first tab so go easy on me, I'm sure there are mistakes somewhere!

Keep Rocking for God! Jason

Comments about this tab

upchink - 2005-03-27

i think i figured out the solo! i was at a downhere concert on thursday.. my youth pastor is the brother of jason, the guitarist/vocalist.. i got to set up the stage.. it was awesome..

solo: (play it twice)
E|---------------------------------------|
A|---------------------------------------|
D|----18--18-16-------16-----------------|
G|-16-----------18-16----18--16-18----16-|
B|---------------------------------16----|
E|---------------------------------------|

that is wut i came up with... im pretty sure thats wut i saw jason play at the show... hope this helps


JasonD - 2005-05-05

Thats awesome :D looks good to me! Thanks :D


Gnarley Sick - 2005-07-15

You should post that solo so people can print it out. (People like me)


jamuel24 - 2005-08-14

Is this the solo after the second verse??


Add a comment/correction

Complimentary Christian Ringtones
Dadamobile and CGR have teamed up to bring your favorite Christian artists right to your phone. Sign up today and get 10 complementary ringtones!
Tab Country
Did you know CGR has a sister site w/ country guitar tabs? Well we do! Its called Tab Country. It has a great archive with a lot of country tabs.
Rockin Tabs
Are you looking for a site that has rock guitar tabs? Then Rockintabs.com is the place for you. It is a budding site with many rock guitar tabs. Submit your tab today.
Tab Gallery
Tab Gallery has a compilation of christian, rock, and country tabs all in one place. Come visit us.