Guitar Tabs
song title    band name

Join Us Today!

Don't strum alone...
be a part of the largest online Christian music community. Browse thousands of guitar tabs and chat w/ musicians like yourself.


It's Free!

This tab has been rated a 5.00 out of 5 for accuracy. (5 votes)Sorry, but you must be logged in to rate this tab.
Click here to log-in, or you can click here to register.
(Registration is free)

All songs owned by corresponding publishing company. If you make copies of any song on this website, be sure to report your usage to CCLI.
Submitted by: I Am THE Hunter

Band: Demon Hunter
Song: Screams of the Undead
Tuning: CGCFAD
Tabber: I Am THE Hunter (antifire03@yahoo.com)

ok, i posted one of the other tabs for this song and i tried to add the
rest of the song by "comment/corrections" but it kept adding it to bass
tabs for some reason. so i'm posting the whole song over and this is 100%.

Intro
G: 3-6-2/3/1--3-6-2/3/1--3-6-2/3/1--3-6-2/3/1

C:3-6-2/3/1--3-6-2/3/1--3-6-2/3/1--3-6-2/3/1
G:3-6-2/3/1--3-6-2/3/1--3-6-2/3/1--3-6-2/3/1
C:3-6-2/3/1--3-6-2/3/1--3-6-2/3/1--3-6-2/3/1

Chorus:
F:----2-----2-----2-----------
C:1p0-1-1p0-1-1p0-1--3-6-2/3/1
G:1p0-0-1p0-0-1p0-0--3-6-2/3/1
C:1p0---1p0---1p0----3-6-2/3/1

Pre-verse:
A:------/6-----/8
F:---------------
C:0-----/3-----/5
G:0--------------
C:0--------------

Verse:
C:000333000112233
G:000333000112233
C:000333000112233

Prechorus:
C:-------------------------
G:-----------------------3-
C:0-3p0-0-3p0-0-1p0-2p0-0--

F:-----------------------5-
C:0-3p0-0-3p0-0-1p0-2p0-0--
G:0-3p0-0-3p0-0-1p0-2p0-03-
C:0-3p0-0-3p0-0-1p0-2p0-0--

Outro:
F:22-2-x-22-2-x-22-2-x-----------------
C:11-1-x-11-1-x-11-1-x-2p1p0-----------
G:00-0-x-00-0-x-00-0-x------2p1p0------
C:--------------------------------2p1p0

Comments about this tab

SLAYdaDEMON814 - 2005-03-05

why is everything in that drop whatever tuning
anyways good tab and keep on rockin out
da black guy


chickensallad64 - 2005-05-09

i love this song so much. it makes me want to jump up and down the room headbanging.nice tab.


chickensallad64 - 2005-05-18

demon hunter is the best band ever ever ever ever !!!!!!!!!!!!!!!!!!!!!!!!!!!!!!!!!!!!!!!!!!!!!!!!!!!!!!!!!!!!!!!!!!!!!!!!!!!!!!!!!!!!!!!!!!!!!!!!!!!!!!!!!!!!!!!!!!!!!!!!!!!!!!!!!!!!!!!!!!!!!!!!!!!!!!!!1


keller - 2005-09-06

Dude! this tab kicks ***!!!!!!!!! Awesome job. Demon Hunter Rocks!!!!!


I Am THE Hunter - 2005-10-12

I've got a couple changes to add.

Corrections by Esteban Ramirez

Intro
C:3-6-3h4-2--3-6-3h4-2--3-6-3h4-2--3-6-3h4-2

C:3-6-3h4-2--3-6-3h4-2--3-6-3h4-2--3-6-3h4-2
G:3-6-3h4-2--3-6-3h4-2--3-6-3h4-2--3-6-3h4-2
C:3-6-3h4-2--3-6-3h4-2--3-6-3h4-2--3-6-3h4-2

Chorus:
Guitar 1:
F:----3-----3-----3-----------
C:1p0-2-1p0-2-1p0-2--3-6-3h4-2
G:1p0-1-1p0-1-1p0-1--3-6-3h4-2
C:1p0---1p0---1p0----3-6-3h4-2

Guitar 2:
A:-----12------12-----12-----------
F:-----15------15-----15-----------
C:1p0-----1p0-----1p0-----3-6-3h4-2
G:1p0-----1p0-----1p0-----3-6-3h4-2
C:1p0-----1p0-----1p0-----3-6-3h4-2


Pre-verse: For one guitar
A:------/6-----/8---|/10-
F:------------------|------
C:0-----/3-----/5---|/7---
G:0-----------------|------
C:0-----------------|------

Preverse: For 2 guitars

Guitar 1:
C:3---2---0----

Guitar 2:
C:3---5---7----

Verse:
C:000333000113344
G:000333000113344
C:000333000113344

Prechorus is correct.

Outro:
F:33-2-x-33-3-x-33-3-x------------------
C:22-2-x-22-2-x-22-2-x-3p2p0------------
G:11-1-x-11-1-x-11-1-x-------3p2p0------
C:---------------------------------3p2p0

The original tab was pretty close. but now thanks to Esteban i believe it's perfect.


Da Flufsta - 2005-10-28

why don't you just write your own tab of this song


underoathrocks - 2007-02-10

Hey keller, we are trying to set a good example as Christians, and saying *** isn't a good example at all.
This guitar tab is very good, good job!


Followthewolves - 2009-01-03

i play the pre-verse like this:

F-------10---12-------
C-0-----x----x-------
G-0-----8----10-----
C-0------------------



both ways sounded the same to me.


Add a comment/correction

Complimentary Christian Ringtones
Dadamobile and CGR have teamed up to bring your favorite Christian artists right to your phone. Sign up today and get 10 complementary ringtones!
Tab Country
Did you know CGR has a sister site w/ country guitar tabs? Well we do! Its called Tab Country. It has a great archive with a lot of country tabs.
Rockin Tabs
Are you looking for a site that has rock guitar tabs? Then Rockintabs.com is the place for you. It is a budding site with many rock guitar tabs. Submit your tab today.
Tab Gallery
Tab Gallery has a compilation of christian, rock, and country tabs all in one place. Come visit us.