Guitar Tabs
song title    band name

Join Us Today!

Don't strum alone...
be a part of the largest online Christian music community. Browse thousands of guitar tabs and chat w/ musicians like yourself.


It's Free!

This tab has been rated a 2.50 out of 5 for accuracy. (4 votes)Sorry, but you must be logged in to rate this tab.
Click here to log-in, or you can click here to register.
(Registration is free)

All songs owned by corresponding publishing company. If you make copies of any song on this website, be sure to report your usage to CCLI.
Submitted by: lleeiinnaad

Intro:

E------------------
B-6-4-2-4-6--2-2---
G-----------3-3----
D------------------
A------------------
E------------------

Guitar 1: Verse (part 1) x2

E----------------------------------------------------------------------------
B----------------------------------------------------------------------------
G-6-6-6-6-6-6-6-6------------------------------------11-11-11-11-11-11-11-11-
D-6-6-6-6-6-6-6-6--6-6-6-6-6-6-6-6--8-8-8-8-8-8-8-8--11-11-11-11-11-11-11-11-
A-4-4-4-4-4-4-4-4--6-6-6-6-6-6-6-6--8-8-8-8-8-8-8-8--9--9--9--9--9--9--9--9--
E------------------4-4-4-4-4-4-4-4--6-6-6-6-6-6-6-6--------------------------

Verse (part 2) x1 after verse 1

E----------------------------------------------------------------------------
B----------------------------------------------------------------------------
G-6-6-6-6-6-6-6-6-------------------11-11-11-11-11-11-11-11------------------
D-6-6-6-6-6-6-6-6--6-6-6-6-6-6-6-6--11-11-11-11-11-11-11-11------------------
A-4-4-4-4-4-4-4-4--6-6-6-6-6-6-6-6--9--9--9--9--9--9--9--9-------------------
E------------------4-4-4-4-4-4-4-4-------------------------------------------

Guitar 2 during the chorus takes the same chords, but picks it instead of 
struming it

Pre Chorus x2 (guitar 2 again picks the same chords)

E----------------------------------------------------------------------------
B----------------------------------------------------------------------------
G-6-6-6-6-6-6-6-6------------------------------------11-11-11-11-11-11-11-11-
D-6-6-6-6-6-6-6-6--6-6-6-6-6-6-6-6--8-8-8-8-8-8-8-8--11-11-11-11-11-11-11-11-
A-4-4-4-4-4-4-4-4--6-6-6-6-6-6-6-6--8-8-8-8-8-8-8-8--9--9--9--9--9--9--9--9--
E------------------4-4-4-4-4-4-4-4--6-6-6-6-6-6-6-6--------------------------

Chorus (for both guitars)

E----------------------------------------------------------------------------
B----------------------------------------------------------------------------
G-6-6-6-6-6-6-6-6------------------------------------11-11-11-11-11-11-11-11-
D-6-6-6-6-6-6-6-6--6-6-6-6-6-6-6-6--8-8-8-8-8-8-8-8--11-11-11-11-11-11-11-11-
A-4-4-4-4-4-4-4-4--6-6-6-6-6-6-6-6--8-8-8-8-8-8-8-8--9--9--9--9--9--9--9--9--
E------------------4-4-4-4-4-4-4-4--6-6-6-6-6-6-6-6--------------------------

E----------------------------------------------------------------------------
B----------------------------------------------------------------------------
G-6-6-6-6-6-6-6-6------------------------------------11----------------------
D-6-6-6-6-6-6-6-6--6-6-6-6-6-6-6-6--8-8-8-8-6-6-6-6--11-(let it ring)--------
A-4-4-4-4-4-4-4-4--6-6-6-6-6-6-6-6--8-8-8-8-6-6-6-6--9-----------------------
E------------------4-4-4-4-4-4-4-4--6-6-6-6-4-4-4-4--------------------------

Verse 2 

(same as verse one but instead of guitar 2 picking they use a delay pedal for C#
so they strum it once and use the delay pedal)

Chorus is same

Bridge (x2)

E----------------------------------------------------------------------------
B----------------------------------------------------------------------------
G-6-6-6-6-6-6-6-6------------------------------------11-11-11-11-11-11-11-11-
D-6-6-6-6-6-6-6-6--6-6-6-6-6-6-6-6--8-8-8-8-8-8-8-8--11-11-11-11-11-11-11-11-
A-4-4-4-4-4-4-4-4--6-6-6-6-6-6-6-6--8-8-8-8-8-8-8-8--9--9--9--9--9--9--9--9--
E------------------4-4-4-4-4-4-4-4--6-6-6-6-6-6-6-6--------------------------

Pre chorus (have get quiet then come in quietly)

Same for guitar 1

guitar 2 picks the chords again in this way

E----------------------------------------------------------------------------
B----------------------------------------------------------------------------
G---6-----------------------------11-----------------------------------------
D-----6--------6------8--------11--------------------------------------------
A-4----------6----------8----9-----------------------------------------------
E----------4--------6--------------------------------------------------------

then chorus quietly once then gets loud at the second time then plays the bridge

Comments about this tab

lleeiinnaad - 2004-12-01

wow they did put my tab on...


guitarplayer67 - 2005-07-08

awsume dude.u couldnt have done it with out god on ur side


glorify-him625 - 2005-10-12

if u wanna play it with chords it's
capo 2
A E

F#m7 (which is just "A" with ur thumb onto the F# fret on "E") and then D
and u just play that over and over! god bless!!!


Add a comment/correction

Complimentary Christian Ringtones
Dadamobile and CGR have teamed up to bring your favorite Christian artists right to your phone. Sign up today and get 10 complementary ringtones!
Tab Country
Did you know CGR has a sister site w/ country guitar tabs? Well we do! Its called Tab Country. It has a great archive with a lot of country tabs.
Rockin Tabs
Are you looking for a site that has rock guitar tabs? Then Rockintabs.com is the place for you. It is a budding site with many rock guitar tabs. Submit your tab today.
Tab Gallery
Tab Gallery has a compilation of christian, rock, and country tabs all in one place. Come visit us.