Guitar Tabs
song title    band name

Join Us Today!

Don't strum alone...
be a part of the largest online Christian music community. Browse thousands of guitar tabs and chat w/ musicians like yourself.


It's Free!

This tab has been rated a 1.60 out of 5 for accuracy. (5 votes)Sorry, but you must be logged in to rate this tab.
Click here to log-in, or you can click here to register.
(Registration is free)

All songs owned by corresponding publishing company. If you make copies of any song on this website, be sure to report your usage to CCLI.
Submitted by: happydude

Dare You to Move
Switchfoot
The Beautiful Letdown

Here's the complete thing... sound pretty close to me. You'll have to listen
to the album to get the rythym though.

Intro:

Gtr 1 (acoust.)

1||---00--00--00--00--00---||
2||---00--00--00--00--00---||
3||o--16--13--14--13--02--o||
4||o--14--14--14--14--02--o||
5||------------------------||
6||------------------------||

Verse:

1||---00--00--00--00--00---||  1|--00--00--|
2||---00--00--00--00--00---||  2|--00--00--|
3||o--16--13--14--13--02--o||  3|--06--02--|
4||o--14--14--14--14--02--o||  4|--04--02--|
5||------------------------||  5|----------|
6||------------------------||  6|----------|

1||---00--00--00--00--00---||  1|--00--00--|
2||---00--00--00--00--00---||  2|--00--00--|
3||o--16--13--14--13--02--o||  3|--02--04--|
4||o--14--14--14--14--02--o||  4|--04--04--|
5||------------------------||  5|--02--02--|
6||------------------------||  6|----------|

Chorus
Gtr 1 (acoust.) and Gtr 2 (dist. elec.)

1|--00--00--00--00--|--00--00--00--00--|
2|--00--00--00--00--|--00--00--00--00--|
3|--01--08--06--08--|--01--08--06--08--|
4|--02--09--07--09--|--02--09--07--09--|
5|--02--09--07--09--|--02--09--07--09--|
6|--00--07--05--07--|--00--07--05--07--|

Interlude

Gtr 1 (acoust.)

1||---00--00--00--00--00---||
2||---00--00--00--00--00---||
3||o--16--13--14--13--02--o||
4||o--14--14--14--14--02--o||
5||------------------------||
6||------------------------||

...ok this is where the electric start to play octaves above the acoustic,
so I'm gonna tab the acoustic first and then the electric.

Verse 2

1||---00--00--00--00--00---||  1|--00--00--|
2||---00--00--00--00--00---||  2|--00--00--|
3||o--16--13--14--13--02--o||  3|--06--02--|
4||o--14--14--14--14--02--o||  4|--04--02--|
5||------------------------||  5|----------|
6||------------------------||  6|----------|

1|--00--00--00--00--00--|  1|--00--00--|
2|--00--00--00--00--00--|  2|--00--00--|
3|--16--13--14--13--02--|  3|--02--02--|
4|--14--14--14--14--02--|  4|--04--02--|
5|----------------------|  5|--04--00--|
6|----------------------|  6|----------|

Gtr 2 (dist.)

1||--------------------------------------------------------------------||
2||--------------------------------------------------------------------||
3||o------------------------------------------------------------------o||
4||o--09-/11--11--11--11----09-/11--11--11--11----09-\07--07--07--07--o||
5||--------------------------------------------------------------------||
6||---07-/09--09--09--09----07-/09--09--09--09----09-\07--07--07--07---||

1|----------------------------------------------------------------------|
2|----------------------------------------------------------------------|
3|----------------------------------------------------------------------|
4|--02-/04--04--04--04----02-/04--04--04--04----04--06--07--07--07--07--|
5|----------------------------------------------------------------------|
6|--00-/02--02--02--02----00-/02--02--02--02----02--04--05--05--05--05--|

1|----------------------------------------------------------------------|
2|----------------------------------------------------------------------|
3|----------------------------------------------------------------------|
4|--07--07--07--07----07-/09--------------------------------------------|
5|----------------------------------------------------------------------|
6|--05--05--05--05----05-/07--------------------------------------------|

1|------------------------------------------------------------------|
2|------------------------------------------------------------------|
3|------------------------------------------------------------------|
4|--09-/11--11--11--11----09-/11--11--11--11----09-\07--07--07--07--|
5|------------------------------------------------------------------|
6|--07-/09--09--09--09----07-/09--09--09--09----09-\07--07--07--07--|

1|----------------------------------------------------------------------|
2|----------------------------------------------------------------------|
3|----------------------------------------------------------------------|
4|--02-/04--04--04--04----02-/04--04--04--04----04--06--07--07--07--07--|
5|----------------------------------------------------------------------|
6|--00-/02--02--02--02----00-/02--02--02--02----02--04--05--05--05--05--|

1|----------------------------------------------------------------------|
2|----------------------------------------------------------------------|
3|----------------------------------------------------------------------|
4|--07--07--07--07----07-/09--------------------------------------------|
5|----------------------------------------------------------------------|
6|--05--05--05--05----05-/07--------------------------------------------|

Chorus
Gtr 1 (acoust.) and Gtr 2 (dist. elec.)

1|--00--00--00--00--00--|--00--00--00--00--|
2|--00--00--00--00--00--|--00--00--00--00--|
3|--04--01--08--06--08--|--01--08--06--08--|
4|--04--02--09--07--09--|--02--09--07--09--|
5|--02--02--09--07--09--|--02--09--07--09--|
6|------00--07--05--07--|--00--07--05--07--|

Bridge

Gtr 1 (acoust.) Gtr 2 (dist.)

                            Just acoustic strumming these two chords
1|--00--00--00--00--00--00--00--00--|
2|--00--00--00--00--00--00--00--00--|
3|--09--02--09--02--09--02--02--06--|
4|--09--02--09--02--09--02--04--07--|
5|--07--00--07--00--07--00--04--07--|
6|--------------------------02--05--|

... I'll tab the chords that the acoustic plays behind the lead first,
the solo will be down a bit further. I put ... after some of the notes.
I just meant to keep on strumming that note, again, listen to the album
for rythym.

Solo

Gtr 1 (acoust.)

1|--00--00--00--00--|
2|--00--00--00--00--|
3|--01--08--06--08--|
4|--02--09--07--09--|
5|--02--09--07--09--|
6|--00--07--05--07--|

Gtr 2 (dist.)

1|--07--07--07--07--00...--05...--07...-------------------|
2|--07--07--07--09--05...--05...--05...--16-------16...---|
3|--09--09--09--09-----------------------18b(20)-(20)...--|
4|--------------------------------------------------------|
5|--------------------------------------------------------|
6|--------------------------------------------------------|

Gtr 1 (acoustic) and Gtr 2 (dist.)

1|--00--00--00--00--00--00--00--00--00--00--00--|
2|--00--00--00--00--00--00--00--00--00--00--00--|
3|--01--08--06--08--01--08--06--09--06--08--01--|
4|--02--09--07--09--02--09--07--11--07--09--02--|
5|--02--09--07--09--02--09--07--11--07--09--02--|
6|--00--07--05--07--00--07--05--09--05--07--00--|

Comments about this tab

Jesusisluv_34 - 2004-11-30

cool


jsoccer - 2004-12-08

nice except, i would play the 2nd verse like this

a11---11---xxxxx-11---xxxxx-11---11---7
e9----9----xxxxx-9----xxxxx-9----9----5 stop and repeat

a4---4----xxxxx-4----xxxxx-4----4----7
e2---2----xxxxx-2----xxxxx-2----2----5 stop then go to the 1st part and do that once then goe to the second part


baney - 2005-01-03

hey man great tab. here's something that you can try for the intro and verses.
-
e|--7-7-7--0-0-0--0-0-0--0-0-0--0-0-0-0-0-0-0-0-0-0
B|--0-0-0--0-0-0--9-9-9--0-0-0--0-0-0-0-0-0-0-0-0-0
G|--9-9-9--9-9-9--9-9-9--9-9-9--9-9-9-9-9-9-9-9-9-9
D|--X-X-X--X-X-X--X-X-X--X-X-X--7-7-7-7-7-7-7-7-7-7
A|--7-7-7--7-7-7--7-7-7--7-7-9--0-0-0-0-0-0-0-0-0-0
E|--0-0-0--0-0-0--0-0-0--0-0-0--0-0-0-0-0-0-0-0-0-0
(and then slide from B to C# twice)

Then chorus (E B A B)

The last time the chorus goes around in the song, it goes (E B A C# B E). Listen to it and you'll catch it at the end.


baney - 2005-01-03

Oh! and in the prechorus- "What happens next, what happens next?" That is F# and then A. And the intro should be right. it sounded like the way you had it but its just an easier way to do it. Stay strong bro!


Add a comment/correction

Complimentary Christian Ringtones
Dadamobile and CGR have teamed up to bring your favorite Christian artists right to your phone. Sign up today and get 10 complementary ringtones!
Tab Country
Did you know CGR has a sister site w/ country guitar tabs? Well we do! Its called Tab Country. It has a great archive with a lot of country tabs.
Rockin Tabs
Are you looking for a site that has rock guitar tabs? Then Rockintabs.com is the place for you. It is a budding site with many rock guitar tabs. Submit your tab today.
Tab Gallery
Tab Gallery has a compilation of christian, rock, and country tabs all in one place. Come visit us.