Guitar Tabs
song title    band name

Join Us Today!

Don't strum alone...
be a part of the largest online Christian music community. Browse thousands of guitar tabs and chat w/ musicians like yourself.


It's Free!

This tab has been rated a 4.00 out of 5 for accuracy. (2 votes)Sorry, but you must be logged in to rate this tab.
Click here to log-in, or you can click here to register.
(Registration is free)

All songs owned by corresponding publishing company. If you make copies of any song on this website, be sure to report your usage to CCLI.
Submitted by: ribby1

Grace Like A River
Copyright Delirious
Written By Martin Smith and Stu G
Album World Service
Tabbed by Rob Borody

On the cd they play it in drop D, this isn't 100% correct but sounds close.

D      000232  
Dmaj7  xxx222 
D7     000212
Gadd2  320033
Emadd2 022033
Bb     013331
Am     002210
Cm7    035500
F?     133200
G?     355400  
Bm     024430
Asus4  002230
C      032010
G/B    020033
~      vibrate string

Intro:listen to cd for timing

e-----3~14141414141414141414~~-----------------------------
b-----------------------------------7~-----7~-----7~----7~--
g-------------------------------7-5----7-5----7-5---7-5----
d-----------------------------0------0------0------0-------
a----------------------------------------------------------
e----------------------------------------------------------

Verse 
F? G? D7  e---------7~ 2x
          b------7-5--
          d-----0-----
          g-----------

F? G? D7  e---------7~ 2x
          b------7-5--
          d-----0-----
          g-----------

Bm Asus4 C G/B

Chorus:
D Dmaj7 Gadd2 Emadd2

Bridge:
Bb Am Cm7 Am

Comments about this tab

ribby1 - 2006-03-13

sorry, mistake made. the intro sould be played on the b-string not e.

e------------------------
b~~~1414141414141414~~~~~


ribby1 - 2007-03-09

and the riff should be this:NOT FINISHING ON THE HIGH E

e------------
b-------~7~--
g-----7-5----
d----0-------
a------------
e------------


Add a comment/correction

Complimentary Christian Ringtones
Dadamobile and CGR have teamed up to bring your favorite Christian artists right to your phone. Sign up today and get 10 complementary ringtones!
Tab Country
Did you know CGR has a sister site w/ country guitar tabs? Well we do! Its called Tab Country. It has a great archive with a lot of country tabs.
Rockin Tabs
Are you looking for a site that has rock guitar tabs? Then Rockintabs.com is the place for you. It is a budding site with many rock guitar tabs. Submit your tab today.
Tab Gallery
Tab Gallery has a compilation of christian, rock, and country tabs all in one place. Come visit us.