Guitar Tabs
song title    band name

Join Us Today!

Don't strum alone...
be a part of the largest online Christian music community. Browse thousands of guitar tabs and chat w/ musicians like yourself.


It's Free!

This tab has been rated a 4.17 out of 5 for accuracy. (6 votes)Sorry, but you must be logged in to rate this tab.
Click here to log-in, or you can click here to register.
(Registration is free)

All songs owned by corresponding publishing company. If you make copies of any song on this website, be sure to report your usage to CCLI.
Submitted by: gregorykicks

Song: When I Go Down (Not the full song)
Artist: Relient K
Album: mmhmm
Tabbed by: Greg Carter


                                 INTRO
e------------------------------------------------------------------------
B------------------------------------------------------------------------
G------------4----------4----------4-----------4--------------4----------
D-------2-----------2----------2------------2--------------2-------------
A--4------------4----------4------------4-------------4-----------4------
E------------------------------------------------------------------------

e ------------------------------------------------------------------------
B-------------------------------------------------------------------------
G------------4------------4-------------4-------------4-----------4-------
D---------2------------2-------------2-------------2-----------2----------
A-----0------------0-------------0-------------0-----------0-------0------
E-------------------------------------------------------------------------


e-------------------------------------------------------------------------
B-------------------------------------------------------------------------
G-----------4----------4----------4------------4--------------4-----------
D-------2-----------2----------2------------2--------------2--------------
A--4------------4----------4------------4-------------4----------4--------
E-------------------------------------------------------------------------


e-------------------------------------------------------------------------
B-------------------------------------------------------------------------
G----------4-------------4-------------4------------4-----------4---------
D-------2------------2-------------2-------------2-----------2------------
A-------------------------------------------------------------------------
E---0-----------0--------------0--------------0-----------0--------0------

                       VERSE 1

e-------------------------------------------------------------------------
B-------------------------------------------------------------------------
G------------4----------4----------4-----------4--------------4-----------
D-------2-----------2----------2------------2--------------2--------------
A--4------------4----------4------------4-------------4----------4--------
E-------------------------------------------------------------------------



e-------------------------------------------------------------------------
B-------------------------------------------------------------------------
G---------4------------4-------------4-------------4-----------4----------
D------2------------2-------------2-------------2-----------2-------------
A----0------------0-------------0-------------0-----------0-------0-------
E-------------------------------------------------------------------------

Play 4 times

e--------------------------------------------------------------------------
B---------------------------------------------0-----------0----------------
G----------2-----------2----------------------------------------  Play 4 times
D-------4-----------4----------4-------4-----------4------------4----------
A--------------------------------------------------------------------------
E---2-----------2----------2-------3-----------3-----------3---------------


E----0---0-  

          E A D G B E
E(chord) (0 2 2 1 0 0)

G(bar chord) (3 5 5 4 3 3)

A(chord) (0 0 3 3 3 0)

Ok so I donít know the names of the chords for the chorus, but I do know what 
the fingering is so bear with me.

                CHORUS
X577XX    7X77XX    355XXX    577XXX     Play 2 times

Then play the verse line once with an open low E string note at the end then
 the electric guitars come in.

Thatís all I have right now.  Hope you guys enjoy it!

Comments about this tab

gregorykicks - 2004-12-06

e-----------------------------------------------------------------------
B------------------------------------------0-----------0----------------
G--------2----------2----------------------------------------Play 4 times
D-----4----------4----------4-------4-----------4------------4----------
A-----------------------------------------------------------------------
E-2----------2----------2-------3-----------3-----------3---------------

The D string should be open for this line. I heard it wrong and as I
played it I realized my mistake.

I also have the harmonic part that comes in near the end (4:12)

B---7-----------7-----------7----------7-- I realize that some of the notes
G-5---7------5----7------5---7------5---7- may not seem to be there(ie D-12)
D-------7-----------12--------7----------- but listen closely and you will
hear it. Thanks! Greg


gregorykicks - 2004-12-06

Because of the window size being messed up i'm
re-submitting just the tab for the harmonics.

Greg

B---7-----------7-----------7----------7--
G-5---7------5----7------5---7------5---7-
D-------7-----------12--------7-----------


willian2190 - 2005-01-02

try harmonics on D-5 instead of D-12


daotter0 - 2005-01-17

Hey man great tab. Keep up the good work.


godz_gal - 2005-10-09

on the last part of the verse, try playing
e-------------------------------------------
B-------------------------------------------
G------2------2------2------2------2--------
D----0------0------0------0------0----------
A-------------------------------------------
E--2------2------2------2------2------2-----

e-------------------------------------------
B-------------------------------------------
G------2------2------2------2------2--------
D----0------0------0------0------0----------
A-------------------------------------------
E--3------3------3------3------3-----3------

I don't know if this is right, but it sounds good


godz_gal - 2005-10-09

the intro is great!


cujorox11 - 2006-03-04

sry you put that A chord as 0 0 3 3 3 0 but it's supposed to be 0 0 2 2 2 0


relient_k304 - 2006-03-12

the chorus is D B G A


Add a comment/correction

Complimentary Christian Ringtones
Dadamobile and CGR have teamed up to bring your favorite Christian artists right to your phone. Sign up today and get 10 complementary ringtones!
Tab Country
Did you know CGR has a sister site w/ country guitar tabs? Well we do! Its called Tab Country. It has a great archive with a lot of country tabs.
Rockin Tabs
Are you looking for a site that has rock guitar tabs? Then Rockintabs.com is the place for you. It is a budding site with many rock guitar tabs. Submit your tab today.
Tab Gallery
Tab Gallery has a compilation of christian, rock, and country tabs all in one place. Come visit us.