Guitar Tabs
song title    band name

Join Us Today!

Don't strum alone...
be a part of the largest online Christian music community. Browse thousands of guitar tabs and chat w/ musicians like yourself.


It's Free!

This tab has been rated a 3.00 out of 5 for accuracy. (3 votes)Sorry, but you must be logged in to rate this tab.
Click here to log-in, or you can click here to register.
(Registration is free)

All songs owned by corresponding publishing company. If you make copies of any song on this website, be sure to report your usage to CCLI.
Submitted by: mmggppmgp

Title: Gone
Artist: Tobymac
Album: Welcome to diverse city
2004 Achtober Songs / Gotee Music / Regisfunk Music (BMI).
Admin. by EMI CMG Publishing 

Well i am adding this because all the other once do not have
the solo tab and the 2nd verse riff that is slightly different from
the one the website...

Tabbed my Michael P. 
e-mail: michael_97124@hotmail.com
Aim: guitarchef97124
Youth's Web site: www.genexoduscenter.net

Verse/Intro/ Chorus:

Note:the timing in here is not exact but you will get it if u listen to the song

e-x-x-x-x-x-x-x-x-x-x-x-x-x-x-x-x-
B-x-x-x-x-x-x-x-x-x-x-x-x-x-x-x-x-
G-x-x-x-x-x-x-x-x-6-6-x-x-x-x-x-x-
D-8-8-x-x-4-4-6-6-6-6-x-x-6-6-4-4- (all over and all over again)
A-8-8-x-x-4-4-6-6-4-4-x-x-6-6-4-4-  
E-6-6-x-x-2-2-4-4-x-x-x-x-4-4-2-2-
                          ^^^^^^^^ 
and it sounds like you dont play this at the end of the chorus 

Verse Riff:
 
B----13--------13--------13----------------
G-14----14--14----14--14----14-11-12-14-12- (2x)
D------------------------------------------

B----13--------13--------------------
G-14----14--14----14----------------- (2x)
D---------------------8---6---4---6--

Solo!!! (special ty to my sis lol)

e----------------------------13-------------------
B-13-14-13-14-13-14-13-14-13----14----------------
G----------------------------------13-11-13-10-13-

e-13-------14-13-------13-----------------(-13---- <-- repeat all over)
B----14----------14-16----14-------9----9-(----14-     again          )
G-------13-------------------13-11---10---(-------                    )

Bridge:

the beggining has
e-13----
B----14-

then its like sigle picks but if the intro/verse/bridge is played during it
it still sounds right but not exactly how its played in the cd... 

well enjoy people, i hope you understand it, if you do not just contact me. 
If you guys have corrections and additions pls email me the stuff
because i really like this song, this song rawks!!!
God Bless!!! 

Comments about this tab

bob6621 - 2005-01-13

hey does any one have chords for this song


packers93 - 2005-02-10

PLEEEEEEEEASE I NEEEEEEEED THE CHORDS FOR THIS SONG


mmggppmgp - 2005-03-05

chords are ez... A#5 (A.K.A. Bb) to F#5 to G#5 to C#5....


jamforchrist123 - 2005-04-28

This Song Is In Drop D. You Can See In The Video


jamforchrist123 - 2005-08-29

Also t the tabber, if you just use this "-" instead of this "x" on the strings not being played its alot easier 2 read


Add a comment/correction

Complimentary Christian Ringtones
Dadamobile and CGR have teamed up to bring your favorite Christian artists right to your phone. Sign up today and get 10 complementary ringtones!
Tab Country
Did you know CGR has a sister site w/ country guitar tabs? Well we do! Its called Tab Country. It has a great archive with a lot of country tabs.
Rockin Tabs
Are you looking for a site that has rock guitar tabs? Then Rockintabs.com is the place for you. It is a budding site with many rock guitar tabs. Submit your tab today.
Tab Gallery
Tab Gallery has a compilation of christian, rock, and country tabs all in one place. Come visit us.