Guitar Tabs
song title    band name

Join Us Today!

Don't strum alone...
be a part of the largest online Christian music community. Browse thousands of guitar tabs and chat w/ musicians like yourself.


It's Free!

This tab has been rated a 3.95 out of 5 for accuracy. (19 votes)Sorry, but you must be logged in to rate this tab.
Click here to log-in, or you can click here to register.
(Registration is free)

All songs owned by corresponding publishing company. If you make copies of any song on this website, be sure to report your usage to CCLI.
Submitted by: black_guitarist

Song: High of 75
Band: Relient K
Album: Mmhmm

Tabbed by: Edi K. (email me at diami_11@yahoo.com)

Tuning: (Eb-Ab-Db-Gb-Bb-Eb)

. = palm muted
~ = let ring

Intro: Acoustic
Eb|-------------------------		Eb|-------
Bb|-------------------------		Bb|-------
Gb|---10-10-10-10\9-9-9-9---	x6	Gb|--10~--
Db|---10-10-10-10\9-9-9-9---		Db|--10~--
Ab|---8--8--8--8-\7-7-7-7---		Ab|--8~---
Eb|-------------------------		Eb|-------


Main Riff: 1st guitar
Eb|----------------------------------------
Bb|---6-6-6-6--5-5-5-5--8-8-8-8--5-5-5-5---
Gb|---5-5-5-5--5-5-5-5--5-5-5-5--5-5-5-5---	x4
Db|----------------------------------------
Ab|----------------------------------------
Eb|----------------------------------------


2nd guitar
Eb|-----------------------------------------------------------------------
Bb|-----------------------------------------------------------------------
Gb|---5-5-5-5-5-5-5-5-5-5-5-5-5-5-5-5-------------------------------------
Db|---5-5-5-5-5-5-5-5-5-5-5-5-5-5-5-5--3-3-3-3-3-3-3-3-3-3-3-3-3-3-3-3----
Ab|---3-3-3-3-3-3-3-3-3-3-3-3-3-3-3-3--3-3-3-3-3-3-3-3-3-3-3-3-3-3-3-3----
Eb|------------------------------------1-1-1-1-1-1-1-1-1-1-1-1-1-1-1-1----

Eb|-----------------------------------------------------------------------
Bb|-----------------------------------------------------------------------
Gb|-----------------------------------------------------------------------
Db|---7-7-7-7-7-7-7-7--5-5-5-5-5-5-5-5--3-3-3-3-3-3-3-3-3-3-3-3-3-3-3-3---
Ab|---7-7-7-7-7-7-7-7--5-5-5-5-5-5-5-5--3-3-3-3-3-3-3-3-3-3-3-3-3-3-3-3---
Eb|---5-5-5-5-5-5-5-5--3-3-3-3-3-3-3-3--1-1-1-1-1-1-1-1-1-1-1-1-1-1-1-1---


Verse: 

Play the main riff x4 (1st guitar)


Both guitars
Eb|----------------------------------------------------------------------
Bb|----------------------------------------------------------------------
Gb|---5-5-5-5-5-5-5-5-5-5-5-5-5-5-5-5------------------------------------
Db|---5-5-5-5-5-5-5-5-5-5-5-5-5-5-5-5--3-3-3-3-3-3-3-3-3-3-3-3-3-3-3-3---
Ab|---3-3-3-3-3-3-3-3-3-3-3-3-3-3-3-3--3-3-3-3-3-3-3-3-3-3-3-3-3-3-3-3---
Eb|------------------------------------1-1-1-1-1-1-1-1-1-1-1-1-1-1-1-1---
      . . . .				   . . . . . . . . . . . . . .

Eb|----------------------------------------------------------------------
Bb|----------------------------------------------------------------------
Gb|----------------------------------------------------------------------
Db|---7-7-7-7-7-7-7-7--5-5-5-5-5-5-5-5--3-3-3-3-3-3-3-3-3-3-3-3-3-3-3-3--
Ab|---7-7-7-7-7-7-7-7--5-5-5-5-5-5-5-5--3-3-3-3-3-3-3-3-3-3-3-3-3-3-3-3--
Eb|---5-5-5-5-5-5-5-5--3-3-3-3-3-3-3-3--1-1-1-1-1-1-1-1-1-1-1-1-1-1-1-1--


Prechorus: Both guitar
Eb|-------------------------------------------------------------
Bb|-------------------------------------------------------------
Gb|-------------------------------------------------------------	x2
Db|---2-2--5-5--2-2--3-3---2-2-2-2--5-5-5-5--2-2-2-2--3-3-3-3---
Ab|---2-2--5-5--2-2--3-3---2-2-2-2--5-5-5-5--2-2-2-2--3-3-3-3---
Eb|---0-0--3-3--0-0--1-1---0-0-0-0--3-3-3-3--0-0-0-0--1-1-1-1---
			   . . . .  . . . .  . . . .  . . . .

Chorus: No guitar, just piano


REPEAT MAIN RIFF x2
REPEAT VERSE (Main riff x4)
REPEAT PRECHORUS (x2)

After there is another piano part during the chorus. (First time through)

 
Chorus 2: Both guitars
Eb|--------------------------------------------------------------------------
Bb|--------------------------------------------------------------------------
Gb|---5-5-5-5----------------------------------------------------------------
Db|---5-5-5-5--3-3-3-3--7-7-7-7--5-5-5-5--2-2-2-2--3-3-3-3--2-2-2-2--5-5-5-5-
Ab|---3-3-3-3--3-3-3-3--7-7-7-7--5-5-5-5--2-2-2-2--3-3-3-3--2-2-2-2--5-5-5-5-
Eb|------------1-1-1-1--5-5-5-5--3-3-3-3--0-0-0-0--1-1-1-1--0-0-0-0--3-3-3-3-

Eb|---------------------------------------------------------
Bb|---------------------------------------------------------
Gb|---5-5-5-5-----------------------------------------------
Db|---5-5-5-5--3-3-3-3--7-7-7-7--5-5-5-5--2-2-2-2--5-5-5-5--
Ab|---3-3-3-3--3-3-3-3--7-7-7-7--5-5-5-5--2-2-2-2--5-5-5-5--
Eb|------------1-1-1-1--5-5-5-5--3-3-3-3--0-0-0-0--3-3-3-3--


I hope this tab wasn't confusing either. I also enjoyed making it. I'm on
a role! Have fun!

Enjoy,

"black guitarist"

Comments about this tab

qazik - 2004-12-11

During the prechorus section it should look like this:
Eb|------------------------------------------------------------
Bb|------------------------------------------------------------
Gb|------------------------------------------------------------
Db|---3-3--5-5--2-2--3-3---3-3-3-3--5-5-5-5--2-2-2-2--3-3-3-3--
Ab|---3-3--5-5--2-2--3-3---3-3-3-3--5-5-5-5--2-2-2-2--3-3-3-3--
Eb|---1-1--3-3--0-0--1-1---1-1-1-1--3-3-3-3--0-0-0-0--1-1-1-1--


RKnerd - 2004-12-14

sounds good, except i think the intro is -------------------
-------------------
--9-9-9-9/8-8-8-8--
--9-9-9-9/9-9-9-9--
--7-7-7-7/6-6-6-6--
-------------------


black_guitarist - 2004-12-16

That is because you are playing it in standard tuning.


hot dog - 2004-12-24

sounds good 2 me!


mmggppmgp - 2005-01-03

same here i gave it a 5


Thechort14 - 2005-01-10

Pretty good job but i think your intro is a bit off i think it's
E----------------------------------------------------------------
B----------------------------------------------------------------
G----------------------------------------------------------------
D---9-----9-----------------------------------2------------------
A---7-5X--6-repeat-4x---7xxx6xxx7xxx--then-2-and-let-fade-out----
E---7-----7-------------4xxx4xxx3xxx-----------------------------


Penguin_Lover - 2005-01-23

I can't see anything wrong with it...

but I don't know soo


spider_man - 2005-01-24

i have a very urgent question, can anyone figure out the piano chords for the chorus, it would be very greatly appreciated, am having battle of the bands and need to know the piano chords (for the cover up song)


spider_man - 2005-01-24

love the tab though, its so easy to understand though and it actually sounds right though to, great job


Migpok35 - 2005-01-29

I don't know how to do flat tuning. and if anybody could tell me how to do drop c tuning for some of the skillet songs that would be greatly appreciated.


jamforchrist123 - 2005-02-08

The Precorus Sounds Better Like This:

Db)---2---5---2---3---
Ab)---3---5---3---3--- Then Play It again Palm Muted
Eb)---0---3---0---1---

Db)---3---5---2---3---
Ab)---3---5---3---3--- Then The Palm Mute Part Again
Eb)---1---3---0---1---


souljahrar - 2005-02-12

Yeah does anyone know how to play it w/o downtuning it?? That is really a pain to do when you're playing all kinds of other songs at the same time...


EZcheez - 2005-02-12

the intro didn't sound right to me. try this

Eb
Bb
Gb
Db-3-3-3-3-2-2-2-2-2- 3-3-3-3-2-2-2-2-3-3-3-3-2-2-2-2
Ab-3-3-3-3-3-3-3-3-3- X4 0-0-0-0-0-0-0-0-0-0-0-0-0-0-0-0
Eb-x-x-x-x-x-x-x-x-x- x-x-x-x-x-x-x-x-3-3-3-3-3-3-3-3

Let Ring
Eb-----
Bb-----
Gb--3--
Db--3--
Ab--1--
Eb

I don't really know how to tab rhythm yet cuz this is like my second time tabbing, so listen to high to find out the rhythm. (this is my fav song)


jamforchrist123 - 2005-02-14

Yeah. That Sounds Better.


johnnylvr10 - 2005-02-14

hey im just taken up some space but the tabs are so freacken awsome//heck yes they are


cgplaya - 2005-02-24

i think the chorus should be
C5 F5 C5 G5 C5 F5 A5 G5
C5 F5 C5 G5 A5 G5 C5


Timberwolf - 2005-02-26

The Intro is
-----------------------
-----------------------
-----------------------
3-3-333-2-22-2222-etc.-
3-3-333-3-33-3333------
-----------------------


guitarnerd153 - 2005-03-01

no the intro goes like this.
x------------------------------------x----------------------------------
x------------------------------------x----------------------------------
x------------------------------------x----------------------------------
o-2222--1111111---2222--1111111------x----------------2222--1111111---2-
o-2222--2222222---2222--2222222------o-7777--6666666--xxxx--xxxxxxx---2-
------------------0000--0000000------o-4444--4444444--2222--2222222---0-
thats it. my guitar teacher helped me with this song. its 100% correct for sure. God Bless!


rytusguitar - 2005-07-26

First off, I think this is a pretty good tab (black guitarist), but I do have a correction or two.
Ok, I think that EZcheeze has the right idea for the first half of the intro-it sounds rite to me. For the second half, however, I think it's easier if you play it like

e------------------------------------------------------------------------
b--------------------------------------------------------------------------
g---10-10-10-10-10-9--9--9--9--9--9--9--12-12-12-12-12-9--9--9--9--9--9--9--
D---10-10-10-10-10-10-10-10-10-10-10-10-10-10-10-10-10-10-10-10-10-10-10-10--
A----------------------------------------------------------------------------
E---------------------------------------------------------------------------

(yes, that's the exact same notes as black guitarist put, but its easier for me at least if you finger it like this:
finger it like a "partial-bar chord (put your index finger on the 8th fret on the 5th string, your fourth finger on the fourth string-10th fret- and your pinkie on the third string-10th fret). Then put your middle finger on the ninth fret third string for the second "chord", and then stretch your pinkie up to the 12th fret, going back to your middle finger for the last "chord". It doesn't matter if your pinkie touches the 1st and 2nd strings for the 12th fret, since you don't play them. You don't even have to put ur index finger on the 8th fret, I just do it so it feels like a "real" chord. That was probably kinda confusing, but take it slowly, and hopefully it'll help.


rytusguitar - 2005-07-26

let me retype that:

e--------------------------------------------------------------
b---------------------------------------------------------------
g-10-10-10-10-10-9--9--9--9--9--9--12-12-12-12-12-9--9--9--9--9-
D-10-10-10-10-10-10-10-10-10-10-10-10-10-10-10-10-10-10-10-10-10-
A--------------------------------------------------------------
E--------------------------------------------------------------


rytusguitar - 2005-08-15

ok, never mind, I can't get it right!
But in response to the problem of having to tune it to Eb while playing other songs, what you can do is tune it down to Eb, then just play it capo 1. Since you tuned it down half a step, just make up for it by using the capo. You probably already knew the logic, but I wasn't sure so I explained it anyways. Now if you don't have a capo, I can't help you there!


guitarnerd153 - 2005-08-29

this song rocks!


Nath - 2005-09-13

There is no capo on this song, so there would be no way of playing it PROPERLY( in this key) without downtuning. With songs like Who I Am Hates Who I've Been, I just play it up a semi-tone. Saves down tuning. If you're doing this in a band, and you're singer dude can't handle the extra semi tone ( which I highly doubt) then the only thing to do is to tune down. Which is a pain. Unless you have 2 guitars. Which I don't........


Nath - 2005-09-13

Mind you, If the acoustic was Standard tuning, then the acoustic part could be this: ( sorry about not putting in timing or that, not really got the time)
e|------------------------------------------
B|-5--4-----5--4----5--4----5---------------
G|-4--4-----4--4----4--4----4---4----4------
D|-4--4-----2--2---------------------2------
A|-2--2-----2--2---------------------2------
E|----------0--0----4--4----2---2----0------
let ring....
Also, if you have already tuned down, and want to play this, like if you're playing live or something, then capo 1, and then remove it for the rest of the song.
Pretty sure that that's right... Not sure about the piano chords, though... I'll ask my piano-y friend... He might know.


Jesusfreak8191 - 2005-09-14

This is a great tab but EZcheez has the intro right


sportsboi - 2006-04-18

ezcheez doesn't have it perfect but it is VEERRYY close...he has 4x but the last to time its supposed to be an octave 1 on e, 3 on d and the a string is muted. and go to 2 on d and so on.


jffryguitar - 2007-01-10

or you can play the intro in standerd tuning like this....
=strum down
/=strum up

C E
e:0 0 C\/E//
b:1 0
g:0 1
d:2 2
a:2 2
E:0 0


jffryguitar - 2007-01-10

forget the strumming


proudrocker19 - 2007-02-13

i agree with thechort but how would you finger that?


Add a comment/correction

Complimentary Christian Ringtones
Dadamobile and CGR have teamed up to bring your favorite Christian artists right to your phone. Sign up today and get 10 complementary ringtones!
Tab Country
Did you know CGR has a sister site w/ country guitar tabs? Well we do! Its called Tab Country. It has a great archive with a lot of country tabs.
Rockin Tabs
Are you looking for a site that has rock guitar tabs? Then Rockintabs.com is the place for you. It is a budding site with many rock guitar tabs. Submit your tab today.
Tab Gallery
Tab Gallery has a compilation of christian, rock, and country tabs all in one place. Come visit us.