Guitar Tabs
song title    band name

Join Us Today!

Don't strum alone...
be a part of the largest online Christian music community. Browse thousands of guitar tabs and chat w/ musicians like yourself.


It's Free!

This tab has been rated a 5.00 out of 5 for accuracy. (1 vote)Sorry, but you must be logged in to rate this tab.
Click here to log-in, or you can click here to register.
(Registration is free)

All songs owned by corresponding publishing company. If you make copies of any song on this website, be sure to report your usage to CCLI.
Submitted by: Jonnys_ninja

Name’s Sake
Shane Barnard
copyright 2001
tabbed by Jonathan Liu

Note to CGR
I added some capos which essentially changes all the chords, and 
I added in the fills. It's more detailed then the one posted.


I'm going off the version by Shane and shane played at the BYX Island party 2004

Capo 5 with a cut capo on the 7th fret(you can vary it.) Everything is 
relative to the cut capo. Lots of times the "0" on both E  strings means 
that you'll have to reach around the capo or what not to push that fret 
(7th fret, 0 with both capos on. Is this too confusing?)

/ = slide up
\ = slide down
~ = vibrato
h = hammer on
p = pull off

here's the song

E---0h2-0---------0h2-0---------
B---0---0---------0---0---------
G---2---2---------2---2---------
D-0--------2/4--0-------2/4\2p0-
A-------------------------------
E------------------------------- x2


---------------------------------
---------------------------------
----------(Drumming on guitar)---
--5-4--4~~-----------------------
--5-5----------------------------
--3-3---------------------------- whenever you see this chord, you can pull off
from the 5th to 4th fret and hammar back on. It's all preference.


---0h2-0---------0h2-0---------
---0---0---------0---0---------
---2---2---------2---2---------
-0--------2/4--0-------2/4\2p0-
-------------------------------
------------------------------- x2


---------------------------------
---------------------------------
-----------(Drumming on guitar)--
--5--4-4~~-----------------------
--5--5---------------------------
--3--3--------------------------- 


---0h2---------------
---0-----------------
---2-----------------
-0-----2/4-5-4-2-0---
---------------------
---------------------


---0h2-0---------0h2-0---------
---0---0---------0---0---------
---2---2---------2---2---------
-0--------2/4--0-------2/4\2p0-
-------------------------------
------------------------------- x2


--------------------------------
--------------------------------
--4--4~~-(Drumming on guitar)---
--5-----------------------------
--5-----------------------------
--3-----------------------------


---0h2----------------------
---0------------------------
---2------------------------
-0-----2/4-4h5p4-2----------
-----------------5-4-2------
----------------------5----- (not too sure about the scale)


--------------------------------
--------------------------------
--1-------1-------1------6------
--2---5---2---5---2---5--7------
--2---5---2---5---2---5--7------
--0---3---0---3---0---3--5------

Any comments? Suggestions? POST IT!

Comments about this tab

Ramuh17 - 2005-12-10

what strings does the cut capo cover? i saw the lesson on their dvd briefly, but i didn't catch what strings the cut capo covered. it's like the bottom 3 or 4 or something? anyone?


Jonnys_ninja - 2006-04-13

it covers the ADG strings


Add a comment/correction

Complimentary Christian Ringtones
Dadamobile and CGR have teamed up to bring your favorite Christian artists right to your phone. Sign up today and get 10 complementary ringtones!
Tab Country
Did you know CGR has a sister site w/ country guitar tabs? Well we do! Its called Tab Country. It has a great archive with a lot of country tabs.
Rockin Tabs
Are you looking for a site that has rock guitar tabs? Then Rockintabs.com is the place for you. It is a budding site with many rock guitar tabs. Submit your tab today.
Tab Gallery
Tab Gallery has a compilation of christian, rock, and country tabs all in one place. Come visit us.