Guitar Tabs
song title    band name

Join Us Today!

Don't strum alone...
be a part of the largest online Christian music community. Browse thousands of guitar tabs and chat w/ musicians like yourself.


It's Free!

This tab has not yet been rated for accuracy.Sorry, but you must be logged in to rate this tab.
Click here to log-in, or you can click here to register.
(Registration is free)

All songs owned by corresponding publishing company. If you make copies of any song on this website, be sure to report your usage to CCLI.
Submitted by: kylebmx

Song-Wolverine
Band-Blaster the Rocketman
Album-Disasteriod
Copyright- Boot to Head Records


Intro
G--------------------------------------
D-7-7-7-6-5-5-5-6-7-7-7-6-5-5-5-6-7-7-7
A-7-7-7-6-5-5-5-6-7-7-7-6-5-5-5-6-7-7-7
E-5-5-5-4-3-3-3-4-5-5-5-4-3-3-3-4-5-5-5

Verse(2x)
G---------------------------------7-7-7-6-5-5-5-6-7-7-7-6-5-5-5-6
D-7-7-7-6-5-5-5-6-7-7-7-6-5-5-5-6-7-7-7-6-5-5-5-6-7-7-7-6-5-5-5-6
A-7-7-7-6-5-5-5-6-7-7-7-6-5-5-5-6-5-5-5-4-3-3-3-4-5-5-5-4-3-3-3-4
E-5-5-5-4-3-3-3-4-5-5-5-4-3-3-3-4--------------------------------

Chorus
G-12-12-12-12-12-12-12-7-7-7-7-7-7-7
D-12-12-12-12-12-12-12-7-7-7-7-7-7-7
A-10-10-10-10-10-10-10-5-5-5-5-5-5-5
E-----------------------------------

Intro

Verse Part 1 (2x)

Chorus 

Verse Part 1
over
Solo(2x)
e-5-5-5-4-3-3-3-4-5-5-5-4-3-3-3-4-10-10-10-9-8-8-8-9-10-10-10-9-8-8-8
B--------------------------------------------------------------------
G--------------------------------------------------------------------

Verse Part 2

Verse Part 1 (2x)

Chorus

Verse Part 1 (several times)

Chorus

Part Comparing Jesus to a dairy Produce
G--
D-7
A-7
E-5 over and over

Intro

awesome and easy song by the best band of all time.  kyleout

Comments about this tab

No comments/corrections found. Add your own

Complimentary Christian Ringtones
Dadamobile and CGR have teamed up to bring your favorite Christian artists right to your phone. Sign up today and get 10 complementary ringtones!
Tab Country
Did you know CGR has a sister site w/ country guitar tabs? Well we do! Its called Tab Country. It has a great archive with a lot of country tabs.
Rockin Tabs
Are you looking for a site that has rock guitar tabs? Then Rockintabs.com is the place for you. It is a budding site with many rock guitar tabs. Submit your tab today.
Tab Gallery
Tab Gallery has a compilation of christian, rock, and country tabs all in one place. Come visit us.