Guitar Tabs
song title    band name

Join Us Today!

Don't strum alone...
be a part of the largest online Christian music community. Browse thousands of guitar tabs and chat w/ musicians like yourself.


It's Free!

This tab has been rated a 5.00 out of 5 for accuracy. (2 votes)Sorry, but you must be logged in to rate this tab.
Click here to log-in, or you can click here to register.
(Registration is free)

All songs owned by corresponding publishing company. If you make copies of any song on this website, be sure to report your usage to CCLI.
Submitted by: Dravyn

"Much of You"
Steven Curtis Chapman
All Things New

The song was described in an interview with Steven Curtis Chapman and he
explained the tuning and playing of this song. It is "...tuned in the basic
D-A-D-G-A-D tuning, only a whole step lower (C G C F G C)". I have played it in
the standard D-A-D-G-A-D tuning and its ok.  I am submitting the intro tab now
in the suggested tuning by Steven.
More to come as I figure it out.

Intro

D---0---0---0--0--0--0---0---0----0----0--0
A---0---0---0--0--0--0---0---0----0----0--0
G--12--11---9-11-12-11---6---4----6----9-11
D---0---0---0--0--0--0---0---0----0----0--0
A---0---0---0--0--0--0---0---0----0----0--0
D--12--12--11-12-12-12---7---5----7---11-12
                              \sl/ \sl/

D---0---0---0--0--0---0---0---0--0-0--0
A---0---0---0--0--0---0---0---0--0-0--0
G--12--11---9-11-12--11---6---4--2-2--4
D---0---0---0--0--0---0---0---0--0-0--0
A---0---0---0--0--0---0---0---0--0-0--0
D--12--12--11-12-12--12---7---5--4-4--5

Comments about this tab

bradedwards - 2004-11-26

Very good, but you missed one chord:

D---0---0---0--0--0--0---0---0----0----0----0--0
A---0---0---0--0--0--0---0---0----0----0----0--0
G--12--11---9-11-12-11---6---4----6----7----9-11
D---0---0---0--0--0--0---0---0----0----0----0--0
A---0---0---0--0--0--0---0---0----0----0----0--0
D--12--12--11-12-12-12---7---5----7----9---11-12
\sl/ \sl/\s1/


bradedwards - 2004-11-26

oops, stupid html. The slides (s1) didn't move over. ignore those :-)


seungg - 2005-01-12

hey i was wondering if you can tell us what interview it was and if i can watch it online or something.. is it new song cafe? and nice tabs..please send me the link to the interview it was online...my email is seungg@gmail.com

God bless!


garciad_02115 - 2005-11-15

It was an interview with WorshipTogether.com about 4-6 months ago where he shared in a studio how he played the tune. I don't think that its available anymore much you might want to check to see if you can get it. Take care + God bless... David


ZJACK - 2007-01-04

You can see the interview on the CD/DVD of the Abbey Road Sessions!


Add a comment/correction

Complimentary Christian Ringtones
Dadamobile and CGR have teamed up to bring your favorite Christian artists right to your phone. Sign up today and get 10 complementary ringtones!
Tab Country
Did you know CGR has a sister site w/ country guitar tabs? Well we do! Its called Tab Country. It has a great archive with a lot of country tabs.
Rockin Tabs
Are you looking for a site that has rock guitar tabs? Then Rockintabs.com is the place for you. It is a budding site with many rock guitar tabs. Submit your tab today.
Tab Gallery
Tab Gallery has a compilation of christian, rock, and country tabs all in one place. Come visit us.