Guitar Tabs
song title    band name

Join Us Today!

Don't strum alone...
be a part of the largest online Christian music community. Browse thousands of guitar tabs and chat w/ musicians like yourself.


It's Free!

This tab has been rated a 3.44 out of 5 for accuracy. (9 votes)Sorry, but you must be logged in to rate this tab.
Click here to log-in, or you can click here to register.
(Registration is free)

All songs owned by corresponding publishing company. If you make copies of any song on this website, be sure to report your usage to CCLI.
Submitted by: snwbrdr698

Relient K
When I Go Down
Mmhmmm

This is the first part of the intro, 
it's all I can get for now, maybe someone can get more and post it

e -----------------------------------------
B -----------------------------------------
G ------4----4------4------4-----4------4--
D ----2-----2-----2------2-----2------2----
A --4-----4----4-------0-----0------0------
E -----------------------------------------

Comments about this tab

EZcheez - 2005-02-12

Yeah it kinda goes like that but a little more bro.

E------------------------------------------------------------------------------
B------------------------------------------------------------------------------
G---4--4--4--4--4----4--4--4--4--4----4--4--4--4--4----4--4--4--4--4-----------
D--2--2--2--2--2----2--2--2--2--2----2--2--2--2--2----2--2--2--2--2------------
A-4--4--4--4--4--4-0--0--0--0--0--0-4--4--4--4--4--4---------------------------
E----------------------------------------------------0--0--0--0--0-------------


EZcheez - 2005-02-12

Yeah it kinda goes like that but a little more bro.

E-----------------------------------
B-----------------------------------
G---4--4--4--4--4----4--4--4--4--4--
D--2--2--2--2--2----2--2--2--2--2---
A-4--4--4--4--4--4-0--0--0--0--0--0-
E-----------------------------------

E-----------------------------------
B-----------------------------------
G---4--4--4--4--4----4--4--4--4--4--
D--2--2--2--2--2----2--2--2--2--2---
A-4--4--4--4--4--4------------------
E------------------0--0--0--0--0--0-


EZcheez - 2005-02-12

Sorry the first one was jacked up so i fixed it
HAve fun


monkeygirlrosie - 2005-05-30

Yea the correction sounds right...thanx for postin!!!!!!


6strings21frets - 2006-12-16

Yeah, I have the song book and it has all the tabs. It goes like this:

Riff 1
E|-----------------|
B|-----------------|
G|---4--4--4--4--4-|
D|--2--2--2--2--2--|
A|-4--4--4--4--4--4|
E|-----------------|

Riff 2
E|-----------------|
B|-----------------|
G|---4--4--4--4--4-|
D|--2--2--2--2--2--|
A|-0--0--0--0--0--0|
E|-----------------|

Riff 1 again

Riff 3
E|-----------------|
B|-----------------|
G|---4--4--4--4--4-|
D|--2--2--2--2--2--|
A|-----------------|
E|-0--0--0--0--0--0|

I hope that helped


Add a comment/correction

Complimentary Christian Ringtones
Dadamobile and CGR have teamed up to bring your favorite Christian artists right to your phone. Sign up today and get 10 complementary ringtones!
Tab Country
Did you know CGR has a sister site w/ country guitar tabs? Well we do! Its called Tab Country. It has a great archive with a lot of country tabs.
Rockin Tabs
Are you looking for a site that has rock guitar tabs? Then Rockintabs.com is the place for you. It is a budding site with many rock guitar tabs. Submit your tab today.
Tab Gallery
Tab Gallery has a compilation of christian, rock, and country tabs all in one place. Come visit us.