Guitar Tabs
song title    band name

Join Us Today!

Don't strum alone...
be a part of the largest online Christian music community. Browse thousands of guitar tabs and chat w/ musicians like yourself.


It's Free!

This tab has been rated a 4.60 out of 5 for accuracy. (5 votes)Sorry, but you must be logged in to rate this tab.
Click here to log-in, or you can click here to register.
(Registration is free)

All songs owned by corresponding publishing company. If you make copies of any song on this website, be sure to report your usage to CCLI.
Submitted by: silver_guitar

every tab for this song's solo was wrong 
so i decided to tab it myself with the correct verse parts
and correct solo parts i am almost positive it
is right but if anyone find fault 
with it be sure to post it

Anberlin
Ready Fuels
Blueprints for the Black Market
Tooth & Nail Records (2003)
Dropped-D Tuning

Mxtabs [http://www.mxtabs.net]
Intro ::: (1x Alone, 2x with Chords)
[------------------------------------------------------------------------------]
[------------------------------------------------------------------------------]
[------------------------------------------------------------------------------]
[------------------------------------------------------------------------------]
[-12-----------10----------12-----------10----------12-----------10------------]
[---0-10-12------12-10-0-----0-10-12------12-10-0-----0-10-12------12-10-0-----]
  D                        A                        A#
				Chorus
[--------------------------] [----------------------]
[--------------------------] [----------------------]
[--------------------------] [-7777777777777777-----]
[--------------------------] [----------------------]
[-12-----------10----------] [-5555555555555555--8\-]
[-----12-10-12-----12-10-0-] [----------------------]
  A#


Verse (palm muted)
  D             A#        A         C
[-x--x--x--x----x-x-x-x---x-x-x-x---x--x--x--x--]
[-x--x--x--x----x-x-x-x---x-x-x-x---x--x--x--x--]
[-x--x--x--x----x-x-x-x---x-x-x-x---x--x--x--x--]
[-12-12-12-12---8-8-8-8---7-7-7-7---10-10-10-10-]
[-12-12-12-12---8-8-8-8---7-7-7-7---10-10-10-10-]
[-12-12-12-12---8-8-8-8---7-7-7-7---10-10-10-10-]

  D             A#        A         C
[-x--x--x--x----x-x-x-x---x-x-x-x---x--x--x--x--]
[-x--x--x--x----x-x-x-x---x-x-x-x---x--x--x--x--]
[-x--x--x--x----x-x-x-x---x-x-x-x---x--x--x--x--]
[-12-12-12-12---8-8-8-8---7-7-7-7---10-10-10-10-]
[-12-12-12-12---8-8-8-8---7-7-7-7---10-10-10-10-]
[-12-12-12-12---8-8-8-8---7-7-7-7---10-10-10-10-]

  D         A#        A         C
[-x-x-x-x---x-x-x-x---x-x-x-x---x-x-x-x-]
[-x-x-x-x---x-x-x-x---x-x-x-x---x-x-x-x-]
[-7-7-7-7---3-3-3-3---2-2-2-2---5-5-5-5-]
[-7-7-7-7---3-3-3-3---2-2-2-2---5-5-5-5-]
[-5-5-5-5---1-1-1-1---0-0-0-0---3-3-3-3-]
[-x-x-x-x---x-x-x-x---x-x-x-x---x-x-x-x-]

  D         A#        A         C
[-x-x-x-x---x-x-x-x---x-x-x-x---x-x-x-x-]
[-x-x-x-x---x-x-x-x---x-x-x-x---x-x-x-x-]
[-7-7-7-7---3-3-3-3---2-2-2-2---5-5-5-5-]
[-7-7-7-7---3-3-3-3---2-2-2-2---5-5-5-5-]
[-5-5-5-5---1-1-1-1---0-0-0-0---3-3-3-3-]
[-x-x-x-x---x-x-x-x---x-x-x-x---x-x-x-x-]


Chorus Intro           Main Chorus
[---------]            [-------------------------------------------------------]
[---------]<1x First   [-------------------------------------------------------]
[---------]   Chorus   [-3-3-3-3--5-5-5-5--7-7----------------3-3-3-3--5-5-5-5-]
[-00-00-0-]<2x Second  [-3-3-3-3--5-5-5-5--7-7-0-0--3-3-3-3---3-3-3-3--5-5-5-5-]
[-00-00-0-]   Chorus   [-1-1-1-1--3-3-3-3--5-5-0-0--3-3-3-3---1-1-1-1--3-3-3-3-]
[-00-00-0-]            [-----------------------0-0--3-3-3-3--------------------]

[------------------------------------------------------------------------]
[------------------------------------------------------------------------]
[-7-7----------------3-3-3-3--5-5-5-5--5-5-5-5---------------------------]
[-7-7-0-0--3-3-3-3---3-3-3-3--5-5-5-5--5-5-5-5--3-3-3-3---5---0-3-0-0-00-]
[-5-5-0-0--3-3-3-3---1-1-1-1--3-3-3-3--3-3-3-3--3-3-3-3---5---0-3-0-0-00-]
[-----0-0--3-3-3-3---------------------3-3-3-3--3-3-3-3---5---0-3-0-0-00-]

Second Intro ::: No intro solo here - go straight in and play
the solo with the chords, 2 times.
[------------------------------------------------------------------------------]
[------------------------------------------------------------------------------]
[------------------------------------------------------------------------------]
[------------------------------------------------------------------------------]
[-12-----------10----------12-----------10----------12-----------10------------]
[---0-10-12------12-10-0-----0-10-12------12-10-0-----0-10-12------12-10-0-----]
  D                        A                        A#

[--------------------------] [----------------------]
[--------------------------] [----------------------]
[--------------------------] [-7777777777777777-----]
[--------------------------] [----------------------]
[-12-----------10----------] [-5555555555555555--8\-]
[-----12-10-12-----12-10-0-] [----------------------]

Verse :::
Chorus ::: (remember to play the intro twice)

Bridge :::
This is the part that starts with "Can you wait for me a little, a little longer...."
[-----------------]
[-----------------]
[-3-3-3-3--5-5--2-]
[-3-3-3-3--5-5--0-]
[-1-1-1-1--3-3--0-]
[----------3-3--0-]

Solo ::: 
The solo starts during the bridge right after the words "a little, a 
little longer" are repeated.
[-------------------------------------------------------8~--8------------------]
[----------10~------8-----------------------------------------11-10----10------]
[-9b10b9-7-----9-10---10-9b10b9-9b10b9-7----7----9b10b9-------------12----12b--]
[----------------------------------------10------------------------------------]
[------------------------------------------------------------------------------]
[------------------------------------------------------------------------------]

[--------------------------8---------------------------------------------------]
[-10-----10-----10--------------11--11-10-10-11-10-10-11-10-11-10-10-11-10-10--]
[----12b----12b-----7-9-10---12------------------------------------------------]
[------------------------------------------------------------------------------]
[------------------------------------------------------------------------------]
[------------------------------------------------------------------------------]

[-----------------------------------------------15-18-15-18-15-18-15-18-15s9---]
[-11-10-10--18-17-16-18-17-16-18-17-16-18-17-16--------------------------------]
[------------------------------------------------------------------------------]
[------------------------------------------------------------------------------]
[------------------------------------------------------------------------------]
[------------------------------------------------------------------------------]

Third/Final Chorus Intro
[--------------------]
[-------5--6---------]
[-3--5--4--5---------]
[-3--5--2--3--3-2----]
[-1--3------------3--]
[--------------------]

Comments about this tab

silver_guitar - 2004-11-21

listen guys before you start getting mad at me i know alot of these rifts came from other tabs but the pre-chorus I tabed it and i finished tabing the solo i just put it all together so people wouldnt get confused


joellaw44 - 2005-03-23

Looks pretty good to me.


#1StyleStuFan - 2005-05-16

This tab sounds awesome!


joellaw44 - 2005-06-12

The bridge part (can you wait for me...) should be
D 10-5-0
A 8-3-0
D 8-2-0


jesusfreak35 - 2005-08-05

sweet tab


Riffman89 - 2005-10-03

The tab sounds awesome. This one actually sounds like the original. The solo though has still got me wondering. At the very end though it sounds a litle off.
The last part should be

(b: -18-17-15--18-17-15) and so on. I think the guitarist is doing some kind of tap on not just straight through, but i could be wrong. i hope that helps some.


silver_guitar - 2005-10-04

yeah your right it is -18-17-15-
when i put it together i was playing 15 but i accidentally typed 16
thanx for the correction their was also apart of the intro the i didnt write correctly
its all supose to be
E-------------------------
B-------------------------
G-------------------------
D-------------------------
A-12---------10-----------
D----0-10-12----12-10-0---


skid - 2005-12-30

No i think the way you had it tabbed out the first way sounds better than that one but i could be wrong, i've heard the song once


SactusReel - 2006-03-13

Man this tab works great. You did a really good job at tabbing it. GOD ROCKS


HolyRockJfreak - 2006-06-28

this tab is very accurate....but I have the book and I have a few changes....I have the book so I know there are a few things right....I believe during the verse the palm muted D is the lower one so its

D--0--
A--0--
D--0--

and on the chorus intro and also ending of the song it's

D--0-3-0--0-0-0-
A--0-3-0--0-0-0-
D--0-3-0--0-0-0-

that's all I can remember to add...so hope it helps...


F.O.G. - 2006-12-01


intro much easier this way

v ^ ^ v ^ ^
D---7---0-----0---5---0--------0
A-----------3--------------3----
v v
^= up pick
v= down pick

for the 7 use your pinky(4)finger
for the 3 use your pointer(1)finger
for the 5 use your ring(3)finger


F.O.G. - 2006-12-01


ok so that pick up pick down did not work out
to well just alternate that will help with speed


|)rink)v(tn|)ew - 2007-02-11

for the intro 2nd guitar...
g------------------9----------
d--0---10--10------7---10--10-
a--0---8---8-------0---8---8--
d--0---7---8-------0---7---8--

for the bridge...

g--10-----------
d--10--------0--
a--8-----3-3-0--
d--8-----2-3-0--

and the chorus sounds really good this way...

b----------6-------------
g--10--5---7---------10--
d--10--5---7---10/10-10--
a--8---3---5---7--8--8---
d--8-----------------8---

10/10
the third time, for the 7--8-...do...

d--------0
a--3--3--0
d--2--3--0


....end of the solo,
e---------------------------------------------
b--11p10/11p10-----11p10/11p10-----11p10------2x
g-------------12p10-----------12p10-----12p10-

then...
e----------------------------------------------------------15--15--....
b--18p15/17p15-----18p15/17p15-----18p15/17p15-------------15b/15b-....
g-------------17p15-----------17p15-----------17p15/14h15b---------....
I have a friend...its called a book, which arent always 100%, butthey sound right at least.


futbol4god - 2007-03-13

very nice tab.....


Add a comment/correction

Complimentary Christian Ringtones
Dadamobile and CGR have teamed up to bring your favorite Christian artists right to your phone. Sign up today and get 10 complementary ringtones!
Tab Country
Did you know CGR has a sister site w/ country guitar tabs? Well we do! Its called Tab Country. It has a great archive with a lot of country tabs.
Rockin Tabs
Are you looking for a site that has rock guitar tabs? Then Rockintabs.com is the place for you. It is a budding site with many rock guitar tabs. Submit your tab today.
Tab Gallery
Tab Gallery has a compilation of christian, rock, and country tabs all in one place. Come visit us.