Guitar Tabs
song title    band name

Join Us Today!

Don't strum alone...
be a part of the largest online Christian music community. Browse thousands of guitar tabs and chat w/ musicians like yourself.


It's Free!

This tab has been rated a 1.22 out of 5 for accuracy. (9 votes)Sorry, but you must be logged in to rate this tab.
Click here to log-in, or you can click here to register.
(Registration is free)

All songs owned by corresponding publishing company. If you make copies of any song on this website, be sure to report your usage to CCLI.
Submitted by: Ganner

Artist Relient K
CD Title: mmhmm
Song: Life After Death And Taxes (FTEII)
Written By: Matt Thiessen
Copyright 2004 Gotee Records
--------------------------------------------
This is my first tab on CGR, so bear with me :).
I'm Tabbing the parts I think are hard to hear/ most important, 
so if you want what's not listed, figure it out yourself :)
just beacuase that's all I bothered to listen to.

intro:
e--------------------------------------------------------------------------
B--------------------------------------------------------------------------
G--6-6-6-6--5-5-5--5---5-3-3---6-6-6-6--5-5-5-3-3xx------------------------
D--6-6-6-6--5-5-5--5---5-3-3---6-6-6-6--5-5-5-3-3xx4--4-4-4-4-4-4-4-4-4-4-4
A--4-4-4-4--3-3-3--3---3-1-1---4-4-4-4--3-3-3-1-1xx4--4-4-4-4-4-4-4-4-4-4-4
E--------------------------------------------------2--2-2-2-2-2-2-2-2-2-2-2

e------------------- x2
B-------------------
G-------------------
D-6-6-6-6--6--------
A-6-6-6-6--6-3-1----
E-4-4-4-4--4-----1-2

Verse:
e---------------------------------------------------x2
B---------------------------------------------------
G-3-3-x-x-x-x-x-x-------------3--3------------------
D-3-3-x-x-x-x-x-x-4--4--4--4--3--3--6--6--4--4--4--4
A-1-1-x-x-x-x-x-x-4--4--4--4--1--1--6--6--4--4--4--4
E-----------------2--2--2--2--------4--4--2--2--2--2

Pre-Chorus:
e-----------------------------------------------------x2
B-----------------------------------------------------
G-6--6--6--6--3--3--3--3--------------3--3-6-6-6------
D-6--6--6--6--3--3--3--3--6--6--6--6--3--3-6-6-6-4-4-4
A-4--4--4--4--1--1--1--1--6--6--6--6--1--1-4-4-4-4-4-4
E-------------------------4--4--4--4-------------2-2-2
Repeat Intro x1

Repeat Verse

Repeat Pre-Chorus

at the end of Pre Chorus:

e-----------------
B-----------------
G-----------------
D-P.M.-4-4-4-4-4-4
A-P.M.-4-4-4-4-4-4
E-P.M.-2-2-2-2-2-2  

Chorus (In Acoustic [listen for the rithym)
e------------------------------------------------------------------------
B------------------------------------------------------------------------
G-4--444-4--4-444-4-3--333-3--3-333-3------------------------------------
D-4--444-4--4-444-4-3--333-3--3-333-3-6--666-6--6-666-6-4--444-4--4-444-4
A-2--222-2--2-222-2-1--111-1--1-111-1-6--666-6--6-666-6-4--444-4--4-444-4
E-------------------------------------4--444-4--4-444-4-2--222-2--2-222-2

e-----------------------------------------------------
B-----------------------------------------------------
G-----------------------------------------------------
D-P.M.-4-4-4-4-4-4-4-4-4-4-4-4-6-6-6-6-6-6-6-6-6-6-6-6
A-P.M.-4-4-4-4-4-4-4-4-4-4-4-4-6-6-6-6-6-6-6-6-6-6-6-6
E-P.M.-2-2-2-2-2-2-2-2-2-2-2-2-4-4-4-4-4-4-4-4-4-4-4-4
Intro 2:
e--------------------------------------------------------------------------
B--------------------------------------------------------------------------
G--6-6-6-6--5-5-5--5---5-3-3---6-6-6-6--5-5-5-3-3xx------------------------
D--6-6-6-6--5-5-5--5---5-3-3---6-6-6-6--5-5-5-3-3xx4--4-4-4-4-4-4-4-4-4-4-4
A--4-4-4-4--3-3-3--3---3-1-1---4-4-4-4--3-3-3-1-1xx4--4-4-4-4-4-4-4-4-4-4-4
E--------------------------------------------------2--2-2-2-2-2-2-2-2-2-2-2

e----------------------- 
B-----------------------
G------------5-3-3------
D-6-6-6-6--6-5-3-3-4-4-4
A-6-6-6-6--6-3-1-1-4-4-4
E-4-4-4-4--4-------2-2-2

e--------------------------------------------------------------------------
B--------------------------------------------------------------------------
G--6-6-6-6--5-5-5--5---5-3-3---6-6-6-6--5-5-5-3-3xx------------------------
D--6-6-6-6--5-5-5--5---5-3-3---6-6-6-6--5-5-5-3-3xx4--4-4-4-4-4-4-4-4-4-4-4
A--4-4-4-4--3-3-3--3---3-1-1---4-4-4-4--3-3-3-1-1xx4--4-4-4-4-4-4-4-4-4-4-4
E--------------------------------------------------2--2-2-2-2-2-2-2-2-2-2-2

e-----------------------------
B-----------------------------
G-----------------------------
D-6-6-6-6--6-P.M.3-3-3-3-3-3-3
A-6-6-6-6--6-P.M.3-3-3-3-3-3-3
E-4-4-4-4--4-P.M.1-1-1-1-1-1-1

Bridge(Palm Muted)
e-------------------------------------
B-------------------------------------
G-------------3(x16)6(x16)------------
D-4(x16)6(x16)3-----6-----4(Not Muted)
A-4-----6-----1-----4-----4-----------
E-2-----4-----------------2-----------
Chorus(x2)

e------
B------
G------
D-6---4
A-6---4
E-4---2
Questions or comments to GSR_Myn_Donos@msn.com :) Thanx :D

Comments about this tab

Rkfan456 - 2004-11-08

Hey good job but i think its
---3-2-----A
--------2--1-E
During the intro instead of like 3- -2 --------- A
-------- 1---2 E
If anyone thinks im wrong please tell me I just think it sounds weird like it is on there but im still learning so please tell me if you think im a complete idiot


Ganner - 2004-11-08

(I wrote this) Eh... play it how you like,I played witht he song and it sounds perfect (my guitar is tuned mind you).


sack - 2004-11-20

Wow!
Yo. Try this as the intro:
Db-x-12-12-12-12--11-11-11--11--11-9-9-9----|
Ab-x-9--9--9--9---9--9--9---9---9--9-9-9----|
Db-x-9--9--9--9---9--9--9---9---9--9-9-9----|

Db-12-12-12-12--11-11-11--9---9-x-x--0----|
Ab-9--9--9--9---9--9--9---9---9-x-x--0----|
Db-9--9--9--9---9--9--9---9---9-x-x--0----|

Db-5-5-5-5--5-5-5--5--5-5-5-5--7-7-7-7-7-----------|
Ab-5-5-5-5--5-5-5--5--5-5-5-5--7-7-7-7-7--4p2------|
Db-5-5-5-5--5-5-5--5--5-5-5-5--7-7-7-7-7-------0h2-|
I know it's weird with drop d and dropping a half step
but... it sounds right. Just try it.


thechan - 2004-11-20

wow sack your version is perfect. I think you should tab some songs on here.
You know what's weird? On the main page it says this tab is 5.00 but then when you click on it it says that it was rated 1.00.


golfguitarist - 2004-11-30

hey, its definitly wrong. u got the notes right, but they dont play power chords, specially in the beginning. the other post of tab for this song is right. its tuned down a half step, then drop the low string to C#. its played way up on the 9th fret area, just listen to it, the other tab is right.


nyghthybrid - 2005-06-08

Could someone please make a correct tab of this song? please?
thnx


KutlessRocks842 - 2005-11-02

I have the book and sacks version is almost perfect


Switchfoot_ - 2007-02-08

the book is wrong (not all songbooks are right,the maker is just tabbing by ear,just like you guys).this is right,but the guy who tabbed this got all thae chords right,but in the pre-chorus and the chorus,he got them in the wrong places,thats all.Nice Tab,man!!!!!!!!!!!!!!!!!!!!!!!!!!!!!!!!!!!!!!!!!!!!!!!!!!!!!


Add a comment/correction

Complimentary Christian Ringtones
Dadamobile and CGR have teamed up to bring your favorite Christian artists right to your phone. Sign up today and get 10 complementary ringtones!
Tab Country
Did you know CGR has a sister site w/ country guitar tabs? Well we do! Its called Tab Country. It has a great archive with a lot of country tabs.
Rockin Tabs
Are you looking for a site that has rock guitar tabs? Then Rockintabs.com is the place for you. It is a budding site with many rock guitar tabs. Submit your tab today.
Tab Gallery
Tab Gallery has a compilation of christian, rock, and country tabs all in one place. Come visit us.