Guitar Tabs
song title    band name

Join Us Today!

Don't strum alone...
be a part of the largest online Christian music community. Browse thousands of guitar tabs and chat w/ musicians like yourself.


It's Free!

This tab has been rated a 4.50 out of 5 for accuracy. (12 votes)Sorry, but you must be logged in to rate this tab.
Click here to log-in, or you can click here to register.
(Registration is free)

All songs owned by corresponding publishing company. If you make copies of any song on this website, be sure to report your usage to CCLI.
Submitted by: sixstringes777

OK this song is all power chords!
(I love this song)

This is the beging song. Both guitars play this.

----------------------------------------------------
-----7----------------------------------------------
--8--8----------------------------------------------
--6--9--9--11---------------------------------------
--------7--8----------------------------------------
----------------------------------------------------
                          
The strum pattern goes Down Down, Up Down Down, Up Down Down, Up Down Down

The chourus is pretty easy and fun to play.

--------------------------------------------
--------------------------------------------
--------------------------------------------
-----4-------------4------------------------
--2--2--4--6----2--2--4--4------------------
--0-----2--4----0-----2--2------------------

For the strum pattern listen to the cd (Wire).

In the verse there is a fast struming pattern. You need to alternate pick.

---------------------------------------------------------
---------------------------------------------------------
----------8------------------6---------------------------
--6-6-6-6---6-6-6----4-4-4-4---4-4-4------------6--------
----------------------------------------4-4-4-4---4-4-4--
---------------------------------------------------------

------------------------
------------------------
------------------------
----------6-------------
--4-4-4-4---4-4-4-------
------------------------

This is a awsome song. Between 'Til' the day i die and Come on back 
to me I dont know which is better.

Comments about this tab

21Frets - 2004-11-25

Nice job. This is great song when played live.


sixstringes777 - 2004-11-27

the strum pattern is not listed


sixstringes777 - 2004-11-27

I forgot to say

After the picking rythem play

e--------------------------------------------
B--------------------------------------------
G--------------------------------------------
D--------------------------------------------
A-2-2-2-2-4-4-4-4----------------------------
E-0-0-0-0-2-2-2-2----------------------------

then hit the power chords.


SGuy - 2004-12-08

I must say, this is some awesome chording. Easy to play and fun too. I think God has blessed you with your guitar skills.


sixstringes777 - 2005-01-07

thanks but my guitar teacher figured it out.
ya i know
i came up with one more accurate.
it uses capo 4.
if you want it email me at dddddbruce1@verizon.net


sixstringes777 - 2005-01-22

sorry
if you sent me an email and haven't been answered.
My email would work.
You should be getting it soon.


Falcon-fever777 - 2005-06-22

Thanks for the tab. Falcon-fever777 ><>


sgarlata2000 - 2005-07-22

YEAH thats an awesome tab but the way they play it live is with a capo on
4th.
Intro is like:
* * * *
* * * *
13 16 9 *
13 16 9 11
11 14 7 11
* * * 9


sgarlata2000 - 2005-07-22

SORRY like this

* * * * *
* * * * *
13 16 9 *
13 16 9 11
11 14 7 11
* * * * 9


alohaboy07 - 2005-08-19

Thanks so much for your tab. It's awesome and completely acurate! Thanks you for posting a correct tab for one of my favorite songs!


beatrum - 2005-09-05

They played this song with capo 2nd fret live here! I think his vioce was tired though so he was singing lower.


Thirddayrocks21 - 2005-09-27

ALL THOSE TABS ARE WRONG CAPO ON 4TH FRET, INTRO IS LIKE THIS
E---------------------------------------
B--------------12-12--------------------
G--11H13-13--X-11-11--X-9-9---X-10------
D--11H13-13--X-9--9---X-9-9---X-11------
A--11----11-----------X-7-7---X-8-------
E---------------------------------------

VERSE IS SOMETHING LIKE THIS WITH LOTS OF DELAY
E-------------------------------------------------------
B-------------------------------------------------------
G-------------------------------------------------------
D-----2---2-------0--0--------0----0-0----------2-------
A---2---2-------2---2-------4----4-----4------2---------
E-0----------/3---------/5-----------------\0-----------

CHORUS IS JUST C,G,D EM

I CAN PLAY ALMOST THE WHOLE ALBUM OF WIRED. ALL OF THE TABS I HAVE SEEN ON THIS SITE ARE INCORRECT,IF YOU WOULD LIKE ME TO TAB OUT SOME LET ME KNOW. I WOULD ALREADY BUT DONT REALLY HAVE TIME, SO LET ME KNOW


1andonlyGod15 - 2006-02-21

Awesome Tabs!!!This is pretty much correct, with addition to the one above me..


AllForHim2008 - 2006-05-05

there is another way to play the intro but ill have to play them both and compare the two. ill update yall on it.
God Bless. Rock on. Peace


strathero - 2006-09-15

The Intro is

---------------------------------------
---------------------------------------
---------------------------------------
--13-13-13s--16-16-16s--9-9-9s--11-11-11
--11-11-11s--14-14-14s--7-7-7s---9--9--9

Repeat this 3-4 times before 1st verse, once after 1st chorus!!

Good Job though. I Picked this up from watching the LIVE WIRE dvd. If Anybody has any comments or questions, email me at gradeanut@bellsouth.net


strathero - 2006-09-16

I messed up the correction above, it forgot to put in the low E string. The powerchords are on the D and A strings.


romo - 2006-10-02

the intro is either like Thirddayrocks21 posted or play it like this if you want something a little simpler:

---------------------------------------
---------------------------------------
---------------------------------------
--13-13-13s--16-16-16s--9-9-9s--11-11-11
--11-11-11s--14-14-14s--7-7-7s---8--8--8
---------------------------------------


Add a comment/correction

Complimentary Christian Ringtones
Dadamobile and CGR have teamed up to bring your favorite Christian artists right to your phone. Sign up today and get 10 complementary ringtones!
Tab Country
Did you know CGR has a sister site w/ country guitar tabs? Well we do! Its called Tab Country. It has a great archive with a lot of country tabs.
Rockin Tabs
Are you looking for a site that has rock guitar tabs? Then Rockintabs.com is the place for you. It is a budding site with many rock guitar tabs. Submit your tab today.
Tab Gallery
Tab Gallery has a compilation of christian, rock, and country tabs all in one place. Come visit us.