Guitar Tabs
song title    band name

Join Us Today!

Don't strum alone...
be a part of the largest online Christian music community. Browse thousands of guitar tabs and chat w/ musicians like yourself.


It's Free!

This tab has been rated a 5.00 out of 5 for accuracy. (4 votes)Sorry, but you must be logged in to rate this tab.
Click here to log-in, or you can click here to register.
(Registration is free)

All songs owned by corresponding publishing company. If you make copies of any song on this website, be sure to report your usage to CCLI.
Submitted by: ariaman

Song: Say Goodnight To The Bad Guy
Artist: Project 86
Tabbed by: Trevor Kirch
c2004 Tooth and Nail

C# tuning

Intro/Verse

C#-----------------------------------------------------------12-
G#-----------------------------------------------------------12-
C#--9-9-8-8-9-9-0-0-0-0-0-0-9-9-8-8-9-9-12-12-12-12-11-11-11-12-

Chorus

C#--9-9-8-8-9-9-0-----9-9-8-8-9-9-12----11---12-
G#--9-9-8-8-9-9-0-----9-9-8-8-9-9-12----11---12-
C#--9-9-8-8-9-9-0-----9-9-8-8-9-9-12----11---12-

Post-chorus(very unsure of this part)

F#--7---------------
C#--7---8---0---3---
G#--5---8---0---3---
C#------8---0---3---


I think that's it. Fairly simple.

Comments about this tab

ariaman - 2004-11-30

Actual chorus

C#--8--7--8--0--8--7--8--12--11--12--
G#--8--7--8--0--8--7--8--12--11--12--
C#--8--7--8--0--8--7--8--12--11--12--


110%panhead - 2005-08-23

just a tiny note: In the *very* first intro, without any singing, it actually goes
12
12
9-9-8-8-9-9-0-0-0-0-0-0-9-9-8-8-9-9-12-12-12-12-12-12-12-12

then go to
12
12
9-9-8-8-9-9-0-0-0-0-0-0-9-9-8-8-9-9-12-12-12-12-11-11-11-12

listen to the beginning of the song very loud, and you will hear it.

The rest of the song is awesome!

-JOE


110%panhead - 2005-08-23

sry that didn't line up the way I wanted it, but you get the drift


p86gamerguy - 2005-11-23

ok sry for not being totally correct on how i say this but what i did was drop to c tuning, then tuned the 6th sting as if dropping the d on normal tuning, but on c tuning, i forgot what its called, but then i put a capo on the first fret then played the chorus like this,
9-9-8-8-9-8-1
9-9-8-8-9-8-1
9-9-8-8-9-8-1

then
9-9-8-8-9-8-13-13-13-13-12-12-12-13
9-9-8-8-9-8-13-13-13-13-12-12-12-13
9-9-8-8-9-8-13-13-13-13-12-12-12-13


Add a comment/correction

Complimentary Christian Ringtones
Dadamobile and CGR have teamed up to bring your favorite Christian artists right to your phone. Sign up today and get 10 complementary ringtones!
Tab Country
Did you know CGR has a sister site w/ country guitar tabs? Well we do! Its called Tab Country. It has a great archive with a lot of country tabs.
Rockin Tabs
Are you looking for a site that has rock guitar tabs? Then Rockintabs.com is the place for you. It is a budding site with many rock guitar tabs. Submit your tab today.
Tab Gallery
Tab Gallery has a compilation of christian, rock, and country tabs all in one place. Come visit us.