Guitar Tabs
song title    band name

Join Us Today!

Don't strum alone...
be a part of the largest online Christian music community. Browse thousands of guitar tabs and chat w/ musicians like yourself.


It's Free!

This tab has not yet been rated for accuracy.Sorry, but you must be logged in to rate this tab.
Click here to log-in, or you can click here to register.
(Registration is free)

All songs owned by corresponding publishing company. If you make copies of any song on this website, be sure to report your usage to CCLI.
Submitted by: ariaman

Song: The Great Golden Gate Disaster
Artist: Project 86
Tabbed by: Trevor Kirch
c2004 Tooth and Nail

C# tuning

Intro/Verse

F#-----------------------------------5-7-
C#--0-0-3-0-3-0----------------------x-x-
G#--0-0-3-0-3-0-several times, then--3-5-
C#--0-0-3-0-3-0--------------------------

Pre-chorus

C#--0-3-
G#--0-3-
C#--0-3-

Chorus

F#--------5--3--
C#--0--3--5--3--(not positive on this)
G#--0--3--3--1--
C#--0--3--------

End of verse 2

C#--7-8-5-7-3-5-0-5-3-8-
G#--7-8-5-7-3-5-0-5-3-8-
C#--7-8-5-7-3-5-0-5-3-8-

Bridge

A#--15------------------------------------------
F#---x------------------------------------------
C#--12-0-3-0-a couple times---------------------
G#-----0-3-0----------------12-10-several times-
C#-----0-3-0------------------------------------

Bridge(cont.)

A#-----------11----------13-
F#--------12----------12----
C#--12-13-------12-13-------there's more, but I can't get it
G#--------------------------
C#--------------------------

That's pretty much all of it. There might be a couple parts that i left out,
but this'll get you started.

Comments about this tab

ariaman - 2004-11-30

ok, i messed up in a couple of places. In the verse instead of:

F#--5-7-
C#--5-7-
G#--3-5-

you do:

F#--9-10--
C#--9-10--
G#--7-8---

and prechorus is:

F#--5-7-
C#--5-7-
G#--3-5-

I'm pretty sure the chorus is wrong too. But I can't figure it out. Sorry.


laxonite - 2005-01-03

great tab but a few corrections:
intro/verse:
F#-----------------------------------14-14-14-15
C#--0-0-3-0-3-0----------------------14-14-14-15
G#--0-0-3-0-3-0-several times, then--12-12-12-13
C#--0-0-3-0-3-0---------------------------------
last time play and keep playing:
5-5-5-7
5-5-5-7
3-3-3-5
-------

Chorus

F#--------------
C#--0--2--3--8--
G#--0--2--3--8--
C#--0--2--3--8--

Bridge
A#-------------15----------
F#-------------x-----------
C#-----0-0-0---12-----8----
G#-----0-0-0------0-0-8---- -0-0-0-0-0-0
C#----------------0-0-8----second time:-0-0-0-0-0-0

then
A#------------------13----------13-
F#---------------12----------12----
C#-0-3-0----12-13-------12-13------
G#-0-3-0---------------------------
C#-0-3-0---------------------------

lax





laxonite - 2005-01-03

oops on the second time on the bridge it is:
-0-0-0-0-0-0
-0-0-0-0-0-0


ariaman - 2005-01-15

"Few" corrections? You redid the entire song! jk, any and all corrections are welcome. The chorus I had no idea on, i'll have to try yours and see how it works. But basically, your corrections were the same as mine.


Add a comment/correction

Complimentary Christian Ringtones
Dadamobile and CGR have teamed up to bring your favorite Christian artists right to your phone. Sign up today and get 10 complementary ringtones!
Tab Country
Did you know CGR has a sister site w/ country guitar tabs? Well we do! Its called Tab Country. It has a great archive with a lot of country tabs.
Rockin Tabs
Are you looking for a site that has rock guitar tabs? Then Rockintabs.com is the place for you. It is a budding site with many rock guitar tabs. Submit your tab today.
Tab Gallery
Tab Gallery has a compilation of christian, rock, and country tabs all in one place. Come visit us.