Guitar Tabs
song title    band name

Join Us Today!

Don't strum alone...
be a part of the largest online Christian music community. Browse thousands of guitar tabs and chat w/ musicians like yourself.


It's Free!

This tab has been rated a 5.00 out of 5 for accuracy. (1 vote)Sorry, but you must be logged in to rate this tab.
Click here to log-in, or you can click here to register.
(Registration is free)

All songs owned by corresponding publishing company. If you make copies of any song on this website, be sure to report your usage to CCLI.
Submitted by: stalfo

Song: In Excelsis Deo
Band: Roper
Album: Brace Yourself for the Mediocre

intro

e-------------------
b-------------------
g--8--5-------------
d--8--5--8--5-------
a--6--3--8--5-------
E--------6--3-------

verse

e-----------------
b-----------------
g-555-777---------
d-555-777-777-555-  The rythym goes mute mute unmute
a-333-555-777-555-
E---------555-333-

pre chorus

e-----------------------
b-----------------------
g-5-------9-------------4th time through--5--------7------
d-x--X8---x--X4---5-----                --x--X8----x--X8--
a-3-------7-------5--X4-                --3--------5------
E-----------------3-----                ------------------

chorus

e----------------------------------
b----------------------------------
g-8------8------5------------------
d-8-X12--8--X4--5--X4--6-----------end on--8------
a-6------5------3------6--X8-------      --8--X5--
E----------------------4-----------      --6------

then...
Intro--->Verse--->Pre-Chorus--->Chorus

2nd time through chorus end on

d--5-------
a--5--X5---
E--3-------

bridge

e------------------------------
b------------------------------
g--5------------------------8--
d--5----3----7--3--5-66-88--8--Play this last chord for a while
a--3----3----7--3--5-66-88--6--
E-------1----5--1--3-44-66-----

chorus

outro

e------------------------------------------------------
b------------------------------------------------------
g--8------8------5-------8---------------8---------8---
d--8--X8--8--X8--5--X16--8--X16--6-------8--8-6--8-8---
a--6------5------3-------6-------6--X16--6--8-6--8-6---
E--------------------------------4----------6-4--6-----

This song is awesome and comforting.  

Comments about this tab

No comments/corrections found. Add your own

Complimentary Christian Ringtones
Dadamobile and CGR have teamed up to bring your favorite Christian artists right to your phone. Sign up today and get 10 complementary ringtones!
Tab Country
Did you know CGR has a sister site w/ country guitar tabs? Well we do! Its called Tab Country. It has a great archive with a lot of country tabs.
Rockin Tabs
Are you looking for a site that has rock guitar tabs? Then Rockintabs.com is the place for you. It is a budding site with many rock guitar tabs. Submit your tab today.
Tab Gallery
Tab Gallery has a compilation of christian, rock, and country tabs all in one place. Come visit us.