Guitar Tabs
song title    band name

Join Us Today!

Don't strum alone...
be a part of the largest online Christian music community. Browse thousands of guitar tabs and chat w/ musicians like yourself.


It's Free!

This tab has been rated a 4.50 out of 5 for accuracy. (4 votes)Sorry, but you must be logged in to rate this tab.
Click here to log-in, or you can click here to register.
(Registration is free)

All songs owned by corresponding publishing company. If you make copies of any song on this website, be sure to report your usage to CCLI.
Submitted by: live_4_him

Let The Praises Ring
Lincoln Brewster
© 2002 Integrity’s Praise! Music/BMI       (each intro # is the number of  
                                            times you play it)

Standard tuening: E-A-D-G-B-E   Song order: Intro-2,V1,C,intro-1,V2,C,inro-1,
                                            bridge,solo,C,Intro-2.
 /=slide up
                                
Intro:

*=strum but mute at the same time.
  |** |
E-----|------------------------------------------------------------|
A--XX-|-777-/9--11-666--6-/7--9--7--777--9--11--14--9--12--11-7----|
D--XX-|-xxx-/x--x--xxx--x-/x--x--x--xxx--x--x---x---x--x---x--x----|
G--XX-|-999-/11-13-888--8-/9--11-9--999--11-13--16--11-14--13-9----|
B-----|------------------------------------------------------------|
E-----|------------------------------------------------------------|

Verse:  
 Strum this chord palm muted. fore for each beat
 1   2   3   4    or 1 2 3 4   The first way is the correct way. Though it 
 xxxxxxxxxxxxxxxx    xxxxxxx       makes it harder to sing and play.
                                                          
 E-oct.                        [E]  song ends on this chord.
E--0--|                      E--0--|                          
A--7--|                      A--2--|
D--9--|                      D--2--|
G-----|                      G--1--|
B-----|                      B--0--|
E-----|                      E--0--|
 Chorus chords:
   C#           B             Em
E-----|      E-----|        E--0--|
A--4--|      A--2--|        A--2--|
D--6--|      D--4--|        D--2--|
G--6--|      G--4--|        G-----|
B-----|      B-----|        B-----|
E-----|      E-----|        E-----|

Bridge: (Acoustic)

E------------------------------------0---00--0----00--00000--|
A--7777--9--11--666-/7--3-/444--222--0h2-22--0h2--22--77777--|
D--xxxx--x--x---xxx-/x--x-/xxx--xxx--0h2-22--0h2--22--99999--|
G--9999--11-13--888-/9--5-/666--444-------------------99999--|
B------------------------------------------------------------|
E------------------------------------------------------------|

Solo: (Electric)

E-----------------------------------------------------------------------|
A-----------------------------------------------------------------------|
D-----------------------------------------------------------------------|
G-----------------------------------------------------------------------|
B-----------------------------------------------------------------------|
E-0-12-11-12-0-7-5-7-0-9-7-9-0-5-4-5-0-7-5-7-0-4-2-4-0-5-4-5-0-2-0-2-0--|

E--------------------------------------------------------------|
A--------------------------------------------------------------|
D--------------------------------------------------------------|
G--------------------------------------------------------------|
B--------------------------------------------------------------|
E--2-4-2-0-5-4-5-0-7-5-7-0-9-7-9-0-12-0-7-0-9-0-5-0-7-0-4-0-7--|

E----------------------------------------------------------------------|
A----------------------------------------------------------------------|
D----------------------------------------------------------------------|
G----------------------------------------------------------------------|
B----------------------------------------------------------------------|
E--12-11-12-0-7-5-7-0-9-7-9-0-5-4-5-0-7-5-7-0-4-2-4-0-5-4-5-0-2-0-2-0--|

E----------------------------------------------------------------------------|
A----------------------------------------------------------------------------|
D----------------------------------------------------------------------------|
G----------------------------------------------------------------16----------|
B------------------------------------------------------17-----17---17-16-17--|
E--4p2p0-00--5p4p0-00--7p5p0-00--9p7p0-00--16-17-16-14---16-14---------------|

Comments about this tab

edgeguitarist05 - 2006-01-06

No if we could just get that All to You Solo down, that would rock. He is so good.

Let the Praises Ring

Chorus Cords:

B C#m7 A E x2

B C#m7 B/D# E A E

B C#m7 B A Bsus (intro)

Played it myself in my youth service, was correct 100%


edgeguitarist05 - 2006-01-06

I forgot to put the Verse.

E Esus E Esus x4

All to You Intro:

E B C# A
E:---------------7-7-7/---9--9--9\--5-5-5-------------------------|
A:-------7-7-7---9-9-9/---11-11-11\-7-7-7-------------------------|
D:-------9-9-9---9-9-9/---11-11-11\-7-7-7-------------------------| x3
G:-------9-9-9----------------------------------------------------|
B:----------------------------------------------------------------|
e:----------------------------------------------------------------|

I beleive thats correct, if not please correct me.


devanbumstead - 2006-01-23

I can't help but hear on the recording of All to You something slightly different than what was posted. Instead of the 9/11/11 chord for the C#m try this chord:
E A D G B E
- - - - - -
9 X 9 9 0 0
- - - - - -

What I seem to hear on the recording is the resonating B & E from the freted D & G strings. If it's not correct, I still tink it sounds a bit more cohesive with the rest of the riff! Hope this helped


LesPaul1988 - 2006-10-10

I've got the whole All to You song, chord wise down.

Intro:

E B C#m7 A (x4)

Verse:

E B C#m7 A (x2)
A B E Emaj9
A Am

Chorus:

E B C#m7 A (x2)
E B/D# C#m7 B A F#m7

Verse again, then a chorus repeat twice.

The rythm for the solo is:

C#m F#sus (x8)
C#sus F#sus F#/A Amaj7

then you go back to the chorus

Have Fun!


GreggThePilgrim - 2006-12-26

Sounds perfect.... except during the rhythm for the solo I go with the F#7 (or F#maj7 )!!


aaron22 - 2007-01-06

isnt the tab suppose to be
E
B
G
D
A
E


skategeezer - 2007-05-20

Yes the TAB is is inverted. I will see if I can correct this and repost. As this is very hard to read "upside down".


live_4_him - 2008-01-05

Sorry about writing this upside down. Im left handed and wrote it in the order the strings are from top to bottom, High E being in the bottom, Low E being on the top. I'll get it fixed and reposted.

The chords are as the first comment stated. not what I posted. I'm almost done writing out the tab for the all to you solo also.


Add a comment/correction

Complimentary Christian Ringtones
Dadamobile and CGR have teamed up to bring your favorite Christian artists right to your phone. Sign up today and get 10 complementary ringtones!
Tab Country
Did you know CGR has a sister site w/ country guitar tabs? Well we do! Its called Tab Country. It has a great archive with a lot of country tabs.
Rockin Tabs
Are you looking for a site that has rock guitar tabs? Then Rockintabs.com is the place for you. It is a budding site with many rock guitar tabs. Submit your tab today.
Tab Gallery
Tab Gallery has a compilation of christian, rock, and country tabs all in one place. Come visit us.