Guitar Tabs
song title    band name

Join Us Today!

Don't strum alone...
be a part of the largest online Christian music community. Browse thousands of guitar tabs and chat w/ musicians like yourself.


It's Free!

This tab has been rated a 3.71 out of 5 for accuracy. (7 votes)Sorry, but you must be logged in to rate this tab.
Click here to log-in, or you can click here to register.
(Registration is free)

All songs owned by corresponding publishing company. If you make copies of any song on this website, be sure to report your usage to CCLI.
Submitted by: carsonh76

Dare You to Move
Switchfoot
The Beautiful Letdown

This song rocks my world! Once again, people have come close to getting it 
right, but no one has gotten it right. Here it is.

intro  (gtr 1)
--8-8-8-----------------------------------------------
--------------9-9-9-----------------------------------
--9-9-9-9-9-9-9-9-9-9-9-9-9-9-9-9-9-9-9-9-9-9-9-------
--9-9-9-9-9-9-9-9-9-9-9-9-9-9-9-7-7-7-7-7-7-7-7-------
------------------------------------------------------
------------------------------------------------------

"..everyone's here.."

gtr2: distorted
------------------------------------
------------------------------------
-9-9-9-9-9-9-9----------------------
-9-9-9-9-9-9-9----------------------
-7-7-7-7-7-7-7-7-7-7-7-7-7-7--------
---------------5-5-5-5-5-5-5--------

"..and everybody's watching you now.."
(repeat intro)

"I dare you to move"
-----------------
-----------------
-9---------------
-9--9--7---------
-7--9--7---------
----7--5---------

-----------------
-----------------
----9------------
--9-9--7--9------
--9-7--7--9------
--7----5--7------

"welcome to the fall out"
--------------------------------|
--------------------------------|
--------------------------------|
-9--11-11-9--11-11--11-11--9-9--|
-9--11-11-9--11-11--11-11--9-9--|
-7--9--9--7--9--9---9--9---7-7--| (x2)

"the tension is here"
---------------------------
---------------------------
---------------------------
-4--4-4--4--4-4--4----7--7-7--7--7-7---7-  + (repeat "welcome to the fallout")
-4--4-4--4--4-4--4----7--7-7--7--7-7---7-
-2--2-2--2--2-2--2----5--5-5--5--5-5---5-

chorus


bridge
-------------------------------------
-------------------------------------
-999999999-------------999999999----------------------------------------------
-999999999--777777777--999999999--777777777--11-11-11-11-11-11---777777777----
-777777777--777777777--777777777--777777777--11-11-11-11-11-11---777777777----
------------555555555-------------555555555---9--9--9--9--9--9---555555555----

solo
--0000-0000-000000000--7777777777--11-11-11----12-12-12-12-12-----
--5555-7777-999999999--5555555555---9---9--9---10-10-10-10-10-----
-------------------------------
-------------------------------
-------------------------------
-------------------------------

chorus

This song is awesome. please rate, comment and enjoy it!
carsonh76

Comments about this tab

curt02k1 - 2004-11-05

hey carson i was just reading this tab and thinkin man this is exactly the way that i play it.....this guys pretty smart....lol...then i saw ur name and it explained it all. thanks for posting it bc im too lazy to lol


carsonh76 - 2004-11-06

perfect
i love this song and it finally sound right
thanks


shanefisher1 - 2004-11-06

Overall the best tab submitted, but it's missing the changes for the last two lines of each verse. Here's how it sounds to my ears:

"Everyone is here...Everyone is here.."

e ------------------------------------
A ------------------------------------
D --6-6-6-6---6-6-6-6---6-6-6-6-------
G --7-7-7-7---7-7-7-7---7-7-7-7-------
B ------------------------------------
E ------------------------------------

"Everyone is watching you now"

e ------------------------------------
A ------------------------------------
D --9-9-9-9---9-9-9-9---9-9-9-9-------
G --9-9-9-9---9-9-9-9---9-9-9-9-------
B ------------------------------------
E ------------------------------------

"What happens next...What happens next"

e ---------------------------------------------------
A ---------------------------------------------------
D --7-7-7-7---7-7-7-7---7-7-7-7---8-8-8-8---8-8-8-8--
G --7-7-7-7---7-7-7-7---7-7-7-7---9-9-9-9---9-9-9-9--
B ---------------------------------------------------
E ---------------------------------------------------


shanefisher1 - 2004-11-06

The solo sounds a little different to me. Here's what I'm hearing:

e --------------------------------------------------
A --7-7-7h9-----------------------------------------
D --9-9-9----9-9---9-9-9-9-9-9-9-9---9-9-9-9-9-9-9-9
G --9-9-9----9-9---9-9-9-9-9-9-9-9---9-9-9-9-9-9-9-9
B --------------------------------------------------
E --------------------------------------------------

e --5-5-5-5-5-5-5-5---5-5-5-5-5-5-5-5---7-7-7-7-7-7-7-7---7-7-7-7-7-7-7-7
A --5-5-5-5-5-5-5-5---5-5-5-5-5-5-5-5---5-5-5-5-5-5-5-5---5-5-5-5-5-5-5-5
D -----------------------------------------------------------------------
G -----------------------------------------------------------------------
B -----------------------------------------------------------------------
E -----------------------------------------------------------------------

e /-11-11-11-11-11-11-11-11---11-11-11-11-11-11-11-11-
A /--9--9--9--9--9--9--9--9----9--9--9--9--9--9--9--9-
D ----------------------------------------------------
G ----------------------------------------------------
B ----------------------------------------------------
E ----------------------------------------------------




Yuki_Sohma - 2004-11-09

This tab is awesome! I used to play the into a fret lower and it was really bugging me. Thanks


jsoccer - 2004-11-22

perfect


sixstringes777 - 2004-11-23

i belive the song starts off with this note

------- --8----
--12--- (read as 12 and 11) -------
---9--- --9----
--11--- --9----
------- -------
------- not -------
this tab has so many mistakes. how did it get a 5?
that wont last


carsonh76 - 2004-11-26

yo sixstringes777! first of all, stringsis spelled "strings" not "stringes." don't dis this perfectly accurate tab if you can't evenspell right. hehe just playin with you. second of all if you know the tab so well, why don't you post one yourself?


curt02k1 - 2004-11-29

hey six strings......this is a christian site....be nice...also....this tab is ALMOST perfect but the 8th fret on the verse should be moved to the 7th...then it is straight off the dvd AND the late show...perfection buddy


carsonh76 - 2004-11-30

thanks curt02k1. you know what you are talking about!


AudioA_gurl - 2004-12-02

WHY ARGUE OVER TABS WHEN YOU COULD BE LISTENING TO AUDIO ADRENELINE?!?!


carsonh76 - 2004-12-03

b/c switchfoot is better than audio adrenaline


jsoccer - 2004-12-08

amen


aznguitarist28 - 2004-12-22

palease peoples. dont be arguing over bands. only switchfoot is more mainstream. they are still both great christian bands. ....and dont dis tabs. it takes a very long time to actually make a good one.


spider_man - 2005-02-02

i like your tab but i found one quick mistake for your first notes

--8-8-8
-------
--9-9-9
--9-9-9 instead of the 8th fret, you should play it down one like this

--7-7-7
-------
--9-9-9
--9-9-9 like this, then it sounds perfect. thats why im guessing it was probably just a typing error or somethin, awesome job though! i love how you dont have to throw your fingers all over like in the other tabs.
nice work!!


carsonh76 - 2005-02-03

spider_man is right, i made a small typo. the intro should be played on the 7, not 8. thanx.


rkfreak - 2005-03-08

hey sweet tab but in the intro on the first chord the 8 on the high e string should be a 7


rkfreak - 2005-03-08

sorry i forgot to read spider_man's correction about that problem


carsonh76 - 2005-03-27

it's alright


guitarplayer67 - 2005-06-25

haha i lowered the score of this tab from a 5 to a 3.5. :P


Add a comment/correction

Complimentary Christian Ringtones
Dadamobile and CGR have teamed up to bring your favorite Christian artists right to your phone. Sign up today and get 10 complementary ringtones!
Tab Country
Did you know CGR has a sister site w/ country guitar tabs? Well we do! Its called Tab Country. It has a great archive with a lot of country tabs.
Rockin Tabs
Are you looking for a site that has rock guitar tabs? Then Rockintabs.com is the place for you. It is a budding site with many rock guitar tabs. Submit your tab today.
Tab Gallery
Tab Gallery has a compilation of christian, rock, and country tabs all in one place. Come visit us.